M.y.m.p. - Especially For You Chords & Tabs

 

Especially For You Chords & Tabs

M.y.m.p. Chords & Tabs

Version: 1 Type: Tab 0 ratings
1 star 2 stars 3 stars 4 stars 5 stars
comments

Especially For You Tab

   
Song: Especially for you 
Artist: M.Y.M.P.

TAP=  slap the string/strings
h  =  hammer on
p  =  pull off
/  =  slide up
\  =  slide down
x  =  dead string
+  =  natural harmonic
[] =  artificial harmonic
.  =  staccato effect
^  =  strum 

             Intro:
             C7add9                          FMaj7
        +    .                                     .              
E:---------|-------------------------------|-0---------------0---------|
B:---------|-3-------T---3-----------T-0---|-1-----1-T---1-------1---T-|
G:-T-x-----|-3-------A---3-----------A-----|-2-----2-A---2---------2-A-|
D:-A-x-----|---------------------3---------|---------------------------|
A:-P----1--|-3-------P---3-----------------|---------------------------|
E:---------|-------------------------P---0-|-1-------P---1-----------P-|
                        
       D7                              Gm    .
E:-----------------------------------|-------3-T-------3--------------|
B:-----3-----x-T---3---------3-T-x---|-3-----3-A---3-------3---T-x----|
G:-----5-----x-A---5---------5-A-x---|-3-----------3---------3-A-x----|
D:---------x-------4-----------------|-----------------------------2p0|
A:-----5-------P---5-------5---P-----|-------------------------P------|
E:-0-------------------------------0-|-3-------P---3---------------0--|
  
  C7add9.                         F               C/E
E:----------------3-------------|-----1---T---------------------|
B:3-----3-T---3-------3---T-x---|-----1---A-------5---5---T-----|
G:3-----3-A---3---------3-A-x---|-----------------5---5---A-----|
D:------------------------------|-----------------5-------------|
A:3-------P---3-----------P-----|-----------------------------0-|
E:----------------------------0-|-1-------P---0---0-------P-----|
                                                
   Dmin/D#         Bb/D            Bbmin                          C7add9                                                      .
E:-----5---5-------------------------------------------1---------|---|
B:-----6---6-----------3---T-----------2---T---2-------2---T-----|-3-|
G:---------------------3---A-----------3---A---1-------3---A-----|-3-|
D:-----------------0-------------------3-------3-----------------|---|
A:-6-------------------------------1-------P---1-----------------|-3-|
E:-------------0-----------P---1---------------------------P---0-|---|
(Repeat chord pattern for the verses until the chord strumming part)


Chord strumming part:           

 F                               A7      +                   
|-------------------------------|-------------------------------|  
|-------------------------------|-------------------------------|  
|-------------------------------|6---6---6----------------------|  
|-------------------------------|--------------5-----5---5------|  
|3---3---------3---x-3---3---0--|7---7---7---x-7---x-7---7---7-7|  
|1---1---x---x-1---x-1---1---0-0|5---5---5---x-----x-5---5---5-5|
 ^   ^         ^   ^ ^   ^   ^ ^ ^   ^   ^   ^ ^   ^ ^   ^   ^ ^               
 Dmin7   .                       Bbmin7  .             
|-------------------------------|------------------------------| 
|--------6----------------------|--------2---------------2-----| 
|5---5---------------5---5------|--------1---------------1-----| 
|7---7-------x-7---x-7---7------|3---3-------x-3---x-3---------| 
|5---5---------------5---5---0-0|1---1-------x-1---x-1---------| 
|-------------------------------|----------------------------0-| 
 ^   ^   ^   ^ ^   ^ ^   ^   ^ ^ ^   ^   ^   ^ ^   ^ ^   ^  
Chorus:
[ Tab from: http://www.guitartabs.cc/tabs/m/m_y_m_p/especially_for_you_tab.html ]
  Am7 .       Dmin7               Gm  .       C7add9         
|---------------------5---------|-----3---------------3---------|
|-----5---T---6---------6-T-----|-3---3---T---3---------3-T-x---|
|-----5-x-A---5-----------A-----|-3-----x-A---3-----------A-x---|
|-------------------------------|-------------------------------|
|---------P---5-----------------|---------P---3---3-------------|
|-5-----------------------P---0-|-3-----------------------P---0-|
   
  Am7         Dmin7               Gm          C7add9   
|---------------------5---------|-----3---------------3---------|
|-5-------T---6---------6-T-x---|-3---3---T---3---------3-T-----|
|-5-------A---5-----------A-x---|-3-------A---3-----------A-----|
|-------------------------------|-------------------------------|
|---------P---5---5-------P-----|---------P---3---3-------------|
|-5---------------------------0-|-3-----------------------P---0-|
 
  Am          Dmin7               Gm          C7susadd9  
|-----5---------------5---------|-----3----------------------------|
|-5---5---T---6---------6-T-----|-3---3---T---3--------------T-----|
|-5-----x-A---5-----------A-----|-3-------A---3-------[17]---A-----|
|-------------------------------|-------------3--------------------|
|---------P---5---5-------P-----|---------P---3--------------------|
|-5---------------------------0-|-3--------------------------P---0-|
  
  FMaj7                           .
|-------------------------------|---|
|-1-------T---1-------1---T-----|-3-|
|-2-------A---2-------2---A-----|-3-|
|-------------------------------|---|
|-------------------------------|-3-|
|-1-------P---1-------1---P---0-|---|
   
Solo:
          .          .
E:|--------------------------------------------------|
B:|--------------------------------------------------|
G:|---7-9/10---9-7--/9---7\5-------------------------|
D:|-8------------------------------------------------|
A:|--------------------------------------------------|
E:|--------------------------------------------------|
  |    C7susadd9           FMaj7 .                   |
E:|--------3-------------|-0-----0---------0---------|
B:|T---3-------3---------|-1-----1-T---1-------1---T-|
G:|A---3---------3-------|-2-----2-A---2---------2-A-|
D:|----------------------|---------------------------|
A:|P---3-----------------|---------------------------|
E:|--------------------0-|-1-------P---1-----------P-|
                 .
|----------------------------2--/5--\3--------------------------------|
|------3-----3--/4---3---4--------------------------------------------|
|----2-----------------------------------------------------------x-5p0|
|0-4------------------------------------------------------------------|
|---------------------------------------------------------------------| 
|---------------------------------------------------------------------|
|      D7                              Gmin                           |
|------------------------------------|-------3-T-------3--------------|
|------3-----x-T---3---------3-T-x---|-3-----3-A---3-------3---T-x----|
|------5-----x-A---5---------5-A-x---|-3-----------3---------3-A-x----|
|----------x-------4-----------------|--------------------------------|
|------5-------P---5-------5---P-----|--------------------------------|
|--0-------------------------------0-|-3-------P---3-----------P---0--|

|------------------------------------------|
|------------------------------------------|
|5-----5---------5--/7\5--/3----\2---------|
|------------------------------------------|
|------------------------------------------|
|------------------------------------------|
|C7add9                          F         |
|----------------3-------------|-----1---T-|
|3-----3-T---3-------3---T-x---|-----1---A-|
|3-----3-A---3---------3-A-x---|-----------|
|------------------------------|-----------|
|3-------P---3-----------P-----|-----------|
|----------------------------0-|-1-------P-|

Outro:

  FMaj7                            .
 |-------------------------------------------------3---------------0-|
 |-1-------T---1-------1---T-------3-------T-----------3---T-------1-|
 |-2-------A---2-------2---A-------3-------A---3-----------A-------2-|
 |---------------------------------3-----------3---------------------|
 |---------------------------------3-------P---3-----------P-------3-|
 |-1-------P---1---1-------P---0-------------------------------0---1-|
                                   ^                               ^
       
       Creeptopunkbing is regipaulslasia@yahoo.com.ph.
Comments