M2m - Why Chords & Tabs

 

Why Chords & Tabs

M2m Chords & Tabs

Version: 1 Type: Tab 0 ratings
1 star 2 stars 3 stars 4 stars 5 stars
comments

Why Tab

   
Title: Why
Written by: Marion Raven/Marit Larsen/Carole Bayer Sager
Artist: m2m
Album: Shades of Purple
Tabbed by: Juan de Jesús Ayala Patiņo
Commets: Juandejesus18@hotmail.com
Enjoy!!!


CHORDS:
D	X 0 0 2 3 2
A/C#	0 4 2 2 2 0
Bm	2 2 4 4 3 2
A	0 0 2 2 2 0
Em	0 2 2 0 0 0 
G	3 2 0 0 0 3
D/F#	2 0 0 2 3 2

TABS
Intro:
         D                        A/C#             Bm
e--------2----2----3-2-3-2-I---0-----0-2-0-0-I------3-2-3-2-
B------3-------------------I-------2---------I--3-----------
G----2-----2----2----------I-----------------I----4---------
D--0-----------------------I-----------------I--------------
A--------------------------I--4--------------I-2------------
E--------------------------I-----------------I--------------
 
   A       
e---0-I-----0-
B-----I---3---
G-----I-2-----
D-----I-------
A-0---I-------
E-----I-------

Pre-Chorus 1, 2:
          G              D/F#              G
e---3---3---3---3---I-2---2---2---2----I-3---3---
B-----0---0---0---0-I------------------I---0---0-
G-------------------I---2---2---2----2-I---------
D-------------------I------------------I---------
A-------------------I------------------I---------
E--3----------------I-2----------------I-3-------

   Em
e--0---0--3/5-5-----
B----0--------------
G-------------------
D-------------------
A-------------0-----
E-0-----------------

 Riff 1:
e-------------------
B-------------------
G-------2/4-2/4-2---
D--0h2--------------
A-------------------
E-------------------
 Riff 2:
e-------------------
B-----5-------------
G-4/6---6/4---2/4---
D-------------------
A-------------------
E-------------------

 Riff 3:
e--5--5h7-5---------
B-------------------
G-------------------
D-------------------
A-------------------
E-------------------

 Riff 4:
e--5--5h7-----------
B-------------------
G-------------------
D-------------------
A-------------------
E-------------------
 
 Riff 5:
e--------------------------
B-2-2--3-3--2-2--0-0-------
G--------------------2-2-0- 
D--------------------------
A--------------------------
E--------------------------
[ Tab from: http://www.guitartabs.cc/tabs/m/m2m/why_tab.html ]
Solo:  
                                        well it donīt... 
e---2------0--------------------------------------------
B-----3---------2-----0--0-2-3/5---------3/7-7/3-3-2-3--
G-------2---------2----------------2---2----------------
D-------------------4-----------------------------------
A-------------------------------------------------------
E-------------------------------------------------------

e-------------------
B--5/3-------5/3----
G------2----------4-
D-------------------
A-------------------
E-------------------


Intro: D, A/C#, Bm, A, D, A/C#, Bm, A 

VERSE 1:
D     A/C#      Bm
Why don't you call me
D     Bm   A
Are you afraid?
D        A/C#     Bm
Your friends all told me
D     Bm           A
You think I'm all that 


PRE-CHORUS 1:
           G 
Well it don't make sense
          D/F#
It's just craziness
         G      Em             A
Ooh I need to know where were at... 


CHORUS:
            D                      A/C#
Wondering why, you're acting this way baby
            D                      G 
Wondering why, you can't find any words to say
Em             D           A/C#  Riff 5
Maybe someone told you a lie
      Em               G     A
Or maybe you're just being shy
                 D     
Keep wondering why  

INTRO: D, A/C#, Bm, A


VERSE 2:
D      A/C#    Bm  Riff 1
Why when you see me    
D     Bm             A 
You pretend I'm not there
D     A/C#   Bm         Riff 1
But when I see your eyes
D     Bm             A   Riff 2
Somehow you seem to care 


PRE-CHORUS 2:
     G               D/F#
Unbelievable, inconceivable
          G           Em         A
Need to know if we're going anywhere 


CHORUS: 
            D  Riff 3             A/C#
Wondering why, you're acting this way baby
            D  Riff4               G 
Wondering why, you can't find any words to say
Em             D           A/C# Riff 5
Maybe someone told you a lie
      Em               G     A
Or maybe you're just being shy
                 D      
Keep wondering why  


SOLO PART: D, A/C#, Bm, A

PRE-CHORUS 1: (Repeat) 

CHORUS: (Repeat X2)

Bueno no tengo electrica pero le hice la lucha con mi guitarrilla, esta cancion
es muy hermosa, es una lastima que no haya estado disponible en mucho tiempo,
esta va por patty y gaby, dos chicas de club de marit
Comments