M2 - Life Goes On Chords & Tabs

 

Life Goes On Chords & Tabs

M2 Chords & Tabs

Version: 1 Type: Tab 0 ratings
1 star 2 stars 3 stars 4 stars 5 stars
comments

Life Goes On Tab

   
-------------------------------------------------------------------------------
			Life Goes On – M2
-------------------------------------------------------------------------------



By: Mike Jones


Intro Pt. 1
e|-----------------------------|---------------------------------------------|
B|-----------------------------|---------------------------------------------|
G|---3-----3------2------2-----|----4-----4------5-----5-----4----3-----2----|
D|----0-3---0-3-----0-3----0-3-|x2---0-3----0-3---0-3---0-3---0-3---0-3------|
A|---3-----3------3------3-----|----3-----3------3-----3-----3----3-----3----|
E|-----------------------------|---------------------------------------------|

Intro Pt. 2
e|----------------------------------------|----------------------------------|
B|----------------------------------------|----------------------------------|
G|----3---3-----3--3-----2---2-----2--2---|-----4---4-----4--4-----5--5------|
D|---3---3--3--3--3--3--3---3--3--3—-3--3-|x2--0---0--0--0--0--0--3--3--3----|
A|--3---3--3--3--3--3--3---3--3--3--3--3--|---3---3--3--3--3--3--3--3--3-----|
E|----------------------------------------|----------------------------------|


e|---------------------------------------------------------------------------|
B|---------------------------------------------------------------------------|
G|---5--5-----4--4-----3--3-----2--------------------------------------------|
D|--3--3--3--3--3--3--3--3--3------------------------------------------------|
A|-3--3--3--3--3--3--3--3--3----3--------------------------------------------|
E|---------------------------------------------------------------------------|

verses
e|---------------------------------------------------------------------------|
B|---------------------------------------------------------------------------|
G|-3--2--3--2--4--5--3--2----------------------------------------------------|
D|-3--3--3--3--0--3--3--3----------------------------------------------------|
A|-3--3--3--3--3--3--3--3----------------------------------------------------|
E|---------------------------------------------------------------------------|
[ Tab from: http://www.guitartabs.cc/tabs/m/m2/life_goes_on_tab.html ]
Chorus (dist., except for 1st time)
e|---------------------------------------------------------------------------|
B|---------------------------------------------------------------------------|
G|-3--2--3--2--4--5--4--5----------------------------------------------------|
D|-3--3—-3--3—-3--3--3--3----------------------------------------------------|
A|-3--3--3--3--3--3--3--3----------------------------------------------------|
E|---------------------------------------------------------------------------|

Solo (dist.)
e|---------------------------------------------------------------------------|
B|---------------------------------------------------------------------------|
G|---------------------------------------------------------------------------|
D|----------------------------------------------------12-12-12-12-15-15-15-15|
A|-12-12-12-12-15-15-15-12-12-12-12-15-15-15-17-17-x2-12-12-12-12-15-15-15-15|
E|---------------------------------------------------------------------------|

e|---------------------------------------------------------------------------|
B|---------------------------------------------------------------------------|
G|------------------------------------------3--------------------------------|
D|-12-12-12-15-15-15-17-17-----------17---\-3-chorus no words, then words----|
A|-12-12-12-15-15-15-17-17x2—2nd time-17x8-\-3-------------------------------|
E|---------------------------------------------------------------------------|


Intro pt. 1
Intro pt. 2

verse
And my mind slips away
As slowly, the eternal lights fade
Cuz’ I. . . had it all
But now, I have nothing left to say

She came, and then she left
Leaving behind only her scent
Intoxicating, I am overcome
But she departed, like shooting me with a gun 

Chorus (no dist.)
Oh, life goes on
Even though she left without a sound
The darkness has come back to my life
But now I alone must deal with my strife

Intro pt. 2

Verse 
Why. . . did she leave
Was it that she didn’t believe in me
Or maybe she just got bored
Or felt that she was ignored

But whatever her reasons were
Shes gone now, left in a blur
Her face is printed on my mind
She will always be my baby, my divine

Chorus, dist. 

Intro pt. 2 dist.

Solo

Chorus, dist. repeating
Comments