Lynyrd Skynyrd - Wino Chords & Tabs

 

Wino Chords & Tabs

Lynyrd Skynyrd Chords & Tabs

Version: 1 Type: Tab 0 ratings
1 star 2 stars 3 stars 4 stars 5 stars
comments

Wino Tab

This is just the rhythm parts, I don't play lead so... But here's this part anyway.

Intro/Verse (on verses, don't hit the open strings twice, only once)
(and intro is played 3x and verse 4x)
e-----------3-0-0--------------------------------|
b-----3-3h5-------------------3-0-0--------------|
G-2h4-------------------2-2h4--------------------|
D-------------------2h4--------------------------|
A------------------------------------------------|
E------------------------------------------------|

Fill Riff#1 (Play 2x)
e------------------------------------------------|
b--------------------3-3-0-----------------------|
G--4-4-----------2h4-----------------------------|
D--4-4--2-2--2h4---------------------------------|
A--2-2--2-2--------------------------------------|
E-------0-0--------------------------------------|

Play Verse
[ Tab from: http://www.guitartabs.cc/tabs/l/lynyrd_skynyrd/wino_tab.html ]
Chorus (Play 2x)
e------------------------------------------------|
b------------------------------------------------|
G------------------------------------------------|
D--10-9s0----5-5-5-x-7-x-9-9---------------------|
A--10-9s0----5-5-5-x-7-x-9-9---------------------|
E--9--8s0----3-3-3-x-5-x-7-7---------------------|

e------------------------------------------------|
b------------------------------------------------|
G------------------------9-9---------------------|
D--10-9s0----5-5-5-x-7-x-9-9---------------------|
A--10-9s0----5-5-5-x-7-x-7-7---------------------|
E--9--8s0----3-3-3-x-5-x-------------------------|

Fill Riff#2 (Play 6x)
e------------------------------------------------|
b------------------------------------------------|
G--7-7-4--2-2-----7-7-7--------------------------|
D--7-7-4--2-2-2---7-7-7-7-7-7-9-9-9-9------------|
A--5-5-2--0-0-2---5-5-5-7-7-7-9-9-9-9------------|
E-------------0---------5-5-5-7-7-7-7------------|

Play Fill Riff#1 twice again

Play Verse

Play Chorus

Play Fill Riff#2 (Play 8x)

That's it, the whole song except for the solos. The Fill Riff#1 is an actual fill riff,
the second one is a riff played with the solos but i didn't want to title it solo riff
and confuse you. I hope you're satisified with it. It's actually my first tab. I figure
out a lot, but they're always posted already. This one wasn't. Enjoy!!
Comments