Lynyrd Skynyrd - Whiskey Rock-a-roller Chords & Tabs

 

Whiskey Rock-a-roller Chords & Tabs

Lynyrd Skynyrd Chords & Tabs

Version: 2 Type: Tab 0 ratings
1 star 2 stars 3 stars 4 stars 5 stars
comments

Whiskey Rock-a-roller Tab

   
                       Whiskey Rock-A-Roller          Tabbed:Wes Sanford
                                by
                          Lynryd Skynyrd         /slide up
                                                 \slide down
                                                 b Bend
                                                 p Pull off
           .:IntrO:.
E------------------------------------------|
B------------------------------------------|
G-77--55----2-4-5-7-----77--55----2-4-5-7--|
D-77--55--5-2-4-5-7-----77--55--5-2-4-5-7--|
A-55--33--5-0-2-3-5-----55--33--5-0-2-3-5--|
E---------3---------------------3----------|
          .:Solo Pt.1:.
E---------------------------------------------------|
B--13--13----13----------------12----12-------------|
G--12b-12b---12b-10--10-12-10----10----10----12b-10-|   keep goin'
D------------------12--------------12----12---------|
A---------------------------------------------------|
E---------------------------------------------------|

E---------------------------------------------------|
B------15--15-13-15/18---20b-18-20---20b--18--------|
G-10/14--14-----------------------19---------19-----| still keep goin'
D---------------------------------------------------|
A---------------------------------------------------|
E---------------------------------------------------|

E----------------------------------|
B----------------------------------|
G-----------------------16-17/19---|
D--------------15-17-19------------|
A--15-15/17\15---------------------|
E----------------------------------|

        .:Verse:.                      .:Guitar 2:.
E---------------------------        E---------------------------|
B---------------------------        B--12-12-12-1212-10---------|
G--7777--5555-------5-7777--(4x)    G--12-12-12-1212-10---------|
D--7777--5555--55-7-5-7777--        D---------------------------|
A--5555--3333--55-7-3-5555--        A---------------------------|
E--------------33-5---------        E---------------------------|
[ Tab from: http://www.guitartabs.cc/tabs/l/lynyrd_skynyrd/whiskey_rock_a_roller_tab_ver_2.html ]
         .:ChoruS:.
E------------------------------------------------------------|
B------------------------------------------------------------|
G---------7-7-77----------7-7-77----------7-7-77----------7--|
D-5-5-55--7-7-77--5-5-55--7-7-77--5-5-55--7-7-77--33--55--7--|
A-5-5-55--5-5-55--5-5-55--5-5-55--5-5-55--5-5-55--33--55--5--|
E-3-3-33----------3-3-33----------3-3-33----------11--33-----|

          .:Solo Pt.2:.
E---------------------------------------------------------|
B----15-15-15p13-15/18------------------------------------|
G--14-----------------------------------------------------| Dont Stop!
D------------------------17b17b-15h17p15------------------|
A----------------------------------------17-15------17----|
E---------------------------------------------15b-13------|

E----------------------------------|
B----------------------------------|
G-----------------------16-17/19---|
D--------------15-17-19------------|
A--15-15/17\15---------------------|
E----------------------------------|

          .:Bridge:.
E---------------------------------------------------------|
B---------------------------------------------------------|
G---------------------------------------------5-5-5-------|
D--5------------------3-------5---------------5-5-5-------|
A-----5--5h7p5p3--3-33--5--------5--5h7p5p3-3-3-3-3-------|
E---------------------------------------------------------|

         .:Bridge Pt.2:.
E------------------------------------|
B------------------------------------|
G------------------------------------|
D--0-2-4-7---------------------------|
A----------7-5-3--------5-7-5--------|
E----------------03-5-7--------0-2-3-|

          .:Solo Pt.3:.
E-----------------------------------------------------------|
B--12-1212-10-----------12-1212-10b----12-1212-10-----------|
G--12-1212-10-----------12-1212-10b----12-1212-10-----------| still goin..
D-------------12--12-10---------------------------12--12-10-|
A-----------------------------------------------------------|
E-----------------------------------------------------------|

E--------------------------------------|
B--------------------------------------|
G-----4-5-7---5----------7-------------| then the little drum solo
D-55--4-5-7---5---5---3--7(13x)--------|
A-55--2-3-5---3---5---3--5-------------|
E-33--------------3---1----------------|


 Ok, thats the whole song and heres the order they all go in:

-Intro
-Solo Pt.1
-Verse(4x)
-Chorus(1x)
-Solo Pt.2
-Verse(4x)
-Chorus(1x)
-Bridge(1x)
-Bridge Pt.2(4x)
-Solo Pt.3
-Verse(4x)
-Chorus(1x)
-Bridge(1x)
-Bridge Pt.2 (1x)
Comments