Lynyrd Skynyrd - What's Your Name Chords & Tabs

 

What's Your Name Chords & Tabs

Lynyrd Skynyrd Chords & Tabs

Version: 2 Type: Bass Tab 0 ratings
1 star 2 stars 3 stars 4 stars 5 stars
comments

What's Your Name Bass Tab

What's Your Name - Lynyrd Skynyrd


  intro
G|------------5-7----------------------|
D|-----3--32---5--45-5-----5\--71097-57|
A|3345--5---5----7----7-57----------7--|
E|-------------------------------------|

  verse
G|----------------------------------------------------------------------------------------------
D|7-7-----7-7-----5-5-----5/7-7-----7-7-----7-7----------------------7-7-----7-7-----5-5-----5/7
A|---9-79----9-79----7-57------987-7---9-79----9-745-7-7----------------9-79----9-79----7-57----
E|--------------------------------9-----------------0---9-79-0-2-3-4--------------------------0-

-------------------------------|
-3/5-7-7-----------------------|
--------9-79----54-------------|
-------------0-0--0205-53-03-5-|


the chorus is the same as the intro played twice
[ Tab from: http://www.guitartabs.cc/tabs/l/lynyrd_skynyrd/whats_your_name_btab_ver_2.html ]
guitar solo--tabbed by FRANKMAN

G-------------------------------------------------
D-7-7-----7---7-7-----7---5-5-----5---7-7-----7---
A-----9-7---9-----9-7---9-----7-5---7-----9-7---9-
E-------------------------------------------------

G-------------------------------------------------
D-7-7-----7---7-7-----7---5-5-----5---7-7-----7---
A-----9-7---9-----9-7---9-----7-5---7-----9-7---9-
E-------------------------------------------------

G-------------------------------------------------------------
D-7-7-----7---7-7-----7---5-5-----5---4-4-4-5-5-5-7-7-----7---
A-----9-7---9-----9-7---9-----7-5---7-----------------9-7---9-
E-------------------------------------------------------------

G---------------------------------
D-7-7-----7-----------------------
A-----9-7---9-3-3-3---------------
E-------------------3-3-3-5-5-5-5-


Comments