Lynyrd Skynyrd - Tuesdays Gone Chords & Tabs

 

Tuesdays Gone Chords & Tabs

Lynyrd Skynyrd Chords & Tabs

Version: 6 Type: Tab 0 ratings
1 star 2 stars 3 stars 4 stars 5 stars
comments

Tuesdays Gone Tab

   
Lynyrd Skynyrd
Tuesdays Gone
Tabbed by: Josua Romano alias Ronnie Van Zant (joro@gmx.ch) 


`		bend up 
^		bend up and down 			
/ 		legato slide up
\		legato slide down 	
>		hammer-on
<		pull-off	

INTRO: 
									    
E||-9---9-10-9-7---9-7-7-5--7-9------5-7-5---9---9-10-9-9-7---9-7---------
H||-----------------------------7-----------------------------------------
G||-----------------------------------------------------------------------
D||-----------------------------------------------------------------------
A||-----------------------------------------------------------------------
E||-----------------------------------------------------------------------


12-10---12-10---12-10||
------10------10-----||
---------------------||
---------------------||
---------------------||
---------------------||


E||--------------------------------------------------------------------
H||--------------------------------------------------------------------
G||-6--4-6-4-2---6--4-6-4---6-4-6-4-6-4----2----------------2-4-6-6-4-2
D||-----------------------2-------------4----0---0------2-4------------
A||--------------------------------------------4----2-4----------------
E||--------------------------------------------------------------------

-----------------------------------0-----|
-------------5-3---5-3---5-3---2-3---2---|
-----------------2-----2-----2---------2-|
-2-2-h4-2-0------------------------------|
-----------------------------------------|
-----------------------------------------|


[ Tab from: http://www.guitartabs.cc/tabs/l/lynyrd_skynyrd/tuesdays_gone_tab_ver_6.html ]
  A        E   F#m          D
Train roll on, on down the line..won't you,
A                 E       D
please take my problems, away.
A                E   F#m          D
I feel the wind blow, outside my door..means I'm,
A                E        D
I'm leaving my woman, at home.


(Chorus)
A          G          D
Tuesday's gone, with wind.
A          E              D
My baby's gone, with the wind.


E||--------------------------------------------------------------------
H||--------------------------------------------------------------------
G||-6-4-6-4-6-4-2---6--4-6-4---6-6-6-4-----2----------------2-4-6-6-4-2
D||--------------------------2----------4----0---0------2-4------------
A||--------------------------------------------4----2-4----------------
E||--------------------------------------------------------------------

-----------------------------------0-----|
-------------5-3---5-3---5-3---2-3---2---|
-----------------2-----2-----2---------2-|
-2-2-h4-2-0------------------------------|
-----------------------------------------|
-----------------------------------------|

And I don't know, oh where I'm going,
I just want to be, left alone.
And when this train ends, I'll try again..'cause I'm
I'm leaving my woman, at home.

(Chorus)

Train roll on, Tuesdays gone

(Piano solo)


||-----------------------------------------
||-----------------------------------------
||-6-4-6-2-6-4-6-4---6-4-6-4-6-4---2-------
||-----------------2-------------4---4-2-0-
||-----------------------------------------
||-----------------------------------------

------------------------------5-14-12-||
--------------------------7-5---------||
----------6-4-2-4-6-2-6-4-------------||
----2-4-------------------------------||
2-4-----------------------------------||
--------------------------------------||


Train roll on, I'm many miles from my home,
I'm riding my blues, away.
Well, Tuesday you see, well she had to be free,
and somehow I've got to, carry on.

(Chorus)
Comments