Lynyrd Skynyrd - Tuesdays Gone Chords & Tabs

 

Lynyrd Skynyrd Chords & Tabs

Version: 1 Type: Tab 2 ratings
1 star 2 stars 3 stars 4 stars 5 stars
comments

Tuesdays Gone Tab

the "^" means bend (pull or pull the string down or up),
and the amount of the "^" means how many times you push or pull the string 
[ Tab from: http://www.guitartabs.cc/tabs/l/lynyrd_skynyrd/tuesdays_gone_tab.html ]
guitar 1
e]--9-9-10-9-7-7-9-7-7-5-7-9-----5-7-5-9-10-9-7-9-7-12-10-12-10-12-10-10-12-10---
B]-------------------------------------7-----------------------------------------
G]-------------------------------------------------------------------------------
D]-------------------------------------------------------------------------------
A]-------------------------------------------------------------------------------
E]-------------------------------------------------------------------------------

guitar 2 (comes in after guitar 1 finishes)
e]----------------------------------------------------------------12-10-12-10-12-10-10-12-10----
B]-------------------------------------------------------------------------------------------10-
G]--5^^-2--5^^-----5^^^------2----------------------2-4-6-6-2-4---------------------------------
D]-----------------2---------4--------------------2-4-------------------------------------------
A]------------------------------------5-4-5--4--------------------------------------------------
E]----------------------------------------------------------------------------------------------
Comments