Lynyrd Skynyrd - Tuesdays Gone Live Intro Chords & Tabs

 

Tuesdays Gone Live Intro Chords & Tabs

Lynyrd Skynyrd Chords & Tabs

Version: 1 Type: Tab 0 ratings
1 star 2 stars 3 stars 4 stars 5 stars
comments

Tuesdays Gone Live Intro Tab

Song: Tuesdays Gone (Live)
Artist Lynyrd Skynyrd
Tuning: Standard
Tabbed by: Justin Green, (dewfreeride89@yahoo.com), July 16, 2006

All I know is the intro but its correct. Just listen to the song for the timing on the bends.

Intro:

E|--9-10-9-9\7------------2-------------------------------------------|
B|--------------------------5p2---------------------------------------|
G|---------------4b(6)~---------4b(6)r4-------------2h4b(6)r(4)b(6)---|
D|--------------------------------------4-------2h4-------------------|
A|------------------------------------------2h4-----------------------|
E|--------------------------------------------------------------------|
[ Tab from: http://www.guitartabs.cc/tabs/l/lynyrd_skynyrd/tuesdays_gone_live_intro_tab.html ]
E|------------------------0-----0-----0-------------------------------|
B|--------------------------3-----3-----3-----------------------------|
G|--4b(6)r(4)p2-4b(6)r4------------------------4b(6)r(4)b(6)r(4)--2~--|
D|----------------------------0-----0-----0---------------------------|
A|--------------------------------------------------------------------|
E|--------------------------------------------------------------------|

E|--------------------------------------------------------------------|
B|--------------------------------------------------------------------|
G|--4b(6)r(4)b(6)r(4)------4b(6)r-----------------2h4b(6)r(4)b(6)-----|
D|---------------------2~---------4\2\0-------2h4---------------------|
A|----------------------------------------2h4-------------------------|
E|--------------------------------------------------------------------|

E|--------------------------0-----0-----0-----------------------------|
B|----------------------------3-----3-----3-----2h3h5p3---------------|
G|--4b(6)r(4)p2-4~---4/6-4------------------------------2-------------|
D|------------------------------0-----0-----0-------------------------|
A|--------------------------------------------------------------------|
E|--------------------------------------------------------------------|
Comments