Lynyrd Skynyrd - Tuesdays Gone Chords & Tabs

 

Tuesdays Gone Chords & Tabs

Lynyrd Skynyrd Chords & Tabs

Version: 1 Type: Bass Tab 0 ratings
1 star 2 stars 3 stars 4 stars 5 stars
comments

Tuesdays Gone Bass Tab

Tuesday's Gone - Lynyrd Skynyrd
 
       intro
G|14--1414/16--1413--131314---1311-1111-13117----14--131416-----------------42-------------|
D|--------------------------13-----------------14------------161616-1616-16---2-2-20-------|
A|----------------------------------------------------------------------------------4-320--|
E|-----------------------------------------------------------------------------------------|
[ Tab from: http://www.guitartabs.cc/tabs/l/lynyrd_skynyrd/tuesdays_gone_btab.html ]
    verse
G|-------------------------------------2---------------------7-5---7--4--7\---|
D|----02---22--024--4-4/540---0-2-/5\---------02---2-----4-7-----7------------|
A|0--4---42------------------2-------00--00--4---42---05-------------------0--|
E|----------------------------------------------------------------------------|

  chorus "Tuesday's gone.."  end the chorus with this
G|-------------------------------------------------------------7-5---7--4--7\---|
D|7--5-------545----------------434-567----7---02----------4-7-----7------------|
A|----70-5-7------5--305--05457----------7----4----2----05-------------------0--|
E|---------------------------------------------------0--------------------------|

tabbed by Achilles (blue_sincere@hotmail.com)

Comments