Lynyrd Skynyrd - The Ballad Of Curtis Loew Chords & Tabs

 

The Ballad Of Curtis Loew Chords & Tabs

Lynyrd Skynyrd Chords & Tabs

Version: 1 Type: Tab 3 ratings
1 star 2 stars 3 stars 4 stars 5 stars
comments

The Ballad Of Curtis Loew Tab

Title: Ballad of Curtis Loew
Band: lynyrd skynyrd
This is once again another 100% correct tab.

INTRO
-------------------------------------------------------------------
-------------------------------------------------------------------
------13/--13/11--9-9/11~~~~------------9----/13--9/13~~~~~~~~~~~~-
---------------------------------9--11-----9-----------------------
-------------------------------------------------------------------
-------------------------------------------------------------------

----------------------------------------------------------------------
----------------------------------------------------------------------
----------------------------------------------------------------------
------------------------/6---5/4--------------------------------------
-----------------------------------7---------------/4----0---0-0-----
---7/9----11------------------------------------------------------0-2-
[ Tab from: http://www.guitartabs.cc/tabs/l/lynyrd_skynyrd/the_ballad_of_curtis_loew_tab.html ]
----------------------------------------------------------------------
----------------------------------------------------------------------
------------------------------------7/6---4~~~~~~~--------------------
-----------------------------------------------------------/6---6/4--2
----------------------------------------------------------------------
---4/2----0-----------------------------------------------------------

----------------------------------------------------------------------
----------------------------------------------------------------------
---2~~~~~~~~~~~~~~~~~-------------------------------------------------
----------------------------------------------------------------------
---------------------------------------4---2----------------/4-------2
----------------------------------------------3/-----0----------------

--------------------------------------------------------------0-----0-
-------------------------------------------------------------------2--
------------------------------------------------/11-------------2-2--2
----------------------------------------------------------------------
---0-------------------7/------------5/4----2-------------------------
---------3/----0------------------------------------------------------

This is about as far as it goes. This is one of the greatest songs, 
hope it helps you out alot.
Davy S.
Comments