Lynyrd Skynyrd - That Smell Chords & Tabs

 

That Smell Chords & Tabs

Lynyrd Skynyrd Chords & Tabs

Version: 2 Type: Tab 0 ratings
1 star 2 stars 3 stars 4 stars 5 stars
comments

That Smell Tab

That Smell 
Lynyrd Skynyrd
posted Jonathan Poet82@hotmail.com

[ Tab from: http://www.guitartabs.cc/tabs/l/lynyrd_skynyrd/that_smell_tab_ver_2.html ]
Intro Solo
e|---------------------------------------------------------------------|
B|--------------------------------------------------------------6-8b-5-|
G|-------5-7b-5---5-7h8-5h7---5-----------------------------5-7--------|
D|-3-5/7--------7-----------7---5h7---5-------------------7------------|
A|----------------------------------7---5h6p5---5-------8--------------|
E|--------------------------------------------8---8-5-8----------------|

e|--------------5----8-------------------|-----------------------------|
B|----5----8------------------------8-10-|-----------------------------|
G|-7b---7b---7b---7b---7b-5---5-7/9------|-----------------------------|
D|--------------------------7------------|-----------------------------|
A|---------------------------------------|-----------------------------|
E|---------------------------------------|-----------------------------|
Comments