Lynyrd Skynyrd - That Smell Chords & Tabs

 

That Smell Chords & Tabs

Lynyrd Skynyrd Chords & Tabs

Version: 1 Type: Tab 3 ratings
1 star 2 stars 3 stars 4 stars 5 stars
comments

That Smell Tab

Artist : lynyrd skynyrd
Song : That smell
Zerograv


h - hammer on
p - pull off
b - bend string up
bb- 1 1/2 tone bend
H - hold bend
r - release bend
/ - slides
~ - vibrato
t - right hand tap
x - play 'note' with heavy damping
* - harmonic

INTRO

E----------------------------------------------------------
B----------------------------------------------------------
G----2------------5-------------7*b-7br--5-----------------
D----2------------5----5h7p5----------------7v--5----------
A----0-----3-5/7-------------7--------------------7/5-3----
E-------/5----------------------------------------------5~-

E------------------------------------------8/10/8----------
B--------------------------------8b~-------8/10/8----------
G-----7b-7*br--5---7b---7r---5-----------------------------
D----------------------------------------------------------
A----------------------------------------------------------
E----------------------------------------------------------

                             This can be an ampli effect
                             But it works with an harmonic

E----------------------------------------------------------
B----8h10p8--------8h10~----10*br---10*br---10*br----------
G------------9---------------------------------------------
D----------------------------------------------------------
A----------------------------------------------------------
E----------------------------------------------------------


It's a two chord song : F Am

Chorus

E----1------------------------------1----------------------
B----1-------1----------------------1----------------------
G----2-------2----------------------2----------------------
D----3-------2-----------2----------3----------------------
A----3-------0----0--2-3----3-2-----3----------------------
E----1---------------------------0--1----------------------



E----1---------------3----5--------------------------------
B----1--------1------3----5--------------------------------
G----2--------2------3----5--------------------------------
D----3--------2--------------------------------------------
A----3--------0--------------------------------------------
E----1-----------------------------------------------------


Solo 1 (0:56)

E----------------------------------------------------------
B--------------------------5-------------------------------
G------------5-7r-p5---5h7----5-7---5----------------------
D-----3-5/7----------7------------7----5-7---5-------------
A------------------------------------------7---5-7-5br-3---
E----------------------------------------------------------

E----------------------------8-------------------5------8--
B---------------------5-8-8b---8r-5----5----8---(5)--------
G-------------------5---------------7b---7b---7b----7b-----
D-----------------7----------------------------------------
A----5----------8------------------------------------------
E------5---------------------------------------------------

E------------------------8--10p8----12p8----10p8----12p8---
B----------------8-10~----------10------10------10------10-
G---7r-p5----7/9-------------------------------------------
D---------7------------------------------------------------
A----------------------------------------------------------
E----------------------------------------------------------

E----10p8----12p8----10p8----12p8----10p8----12p8----10p8--
B---------10------10------10------10------10------10-------
G----------------------------------------------------------
D----------------------------------------------------------
A----------------------------------------------------------
E----------------------------------------------------------

E---12p8----10p8----12p8----10p8----12p8----10p8----8-10br-
B--------10------10------10------10------10------10--------
G----------------------------------------------------------
D----------------------------------------------------------
A----------------------------------------------------------
E----------------------------------------------------------

E---p8-----------------------------------------------------
B------10~---8/10/8---6~-----------------------------------
G------------7/9-/7---5~-----------------------------------
D----------------------------------------------------------
A----------------------------------------------------------
E----------------------------------------------------------




SolO 2 (2:22)



E-------8-10b-10b---10brp8-10-10p8/5-8-8p7-5-7-7p5---5-----
B---/10--------------------------------------------8---8b--
G----------------------------------------------------------
D----------------------------------------------------------
A----------------------------------------------------------
E----------------------------------------------------------

E---5---------------5--------------5--------------5--------
B-----5h8p5----5-8b---5h8p5---5-8b---5h8p5---5-8b---5h8p5--
G-----------7---------------7--------------7---------------
D----------------------------------------------------------
A----------------------------------------------------------
E----------------------------------------------------------

E---------8b-8brp5---8-8p5---5-----------------------------
B-------5------------------8---8b-----8-5------------------
G-----7-----------------------------------7b----7bp5-------
D----------------------------------------------------7-----
A----------------------------------------------------------
E----------------------------------------------------------


E--------------------------------------------------8r-5----
B--------------------------------------8b-8rp5---5---------
G----7-7p5---5~-------------5-7-7b-------------7-----------
D----------7----7-5-7-7p5----------------------------------
A-------------------------7--------------------------------
E----------------------------------------------------------

E----------------------------------------------------------
B-----5/3--------------------------------------------------
G---------5-2~---------------------------------------------
D----------------------------------------------------------
A----------------------------------------------------------
E----------------------------------------------------------



Then distortion (2:39)

E----------------------------------------------------------
B----------------------------------------------------------
G----------------------------------------------------------
D------9b-9b-9b-9b-9brp7---7/5--------5-7p5---5h7~---------
A------------------------9--------5h7-------7--------------
E----------------------------------------------------------


E----------------------------------------------------------
B----------------------------------------------------------
G--------5-7-7brp5---------5-7p5---5-7b--------5-7p5---5---
D------7-----------7~----7-------7-----------7-------7-----
A----------------------------------------------------------
E----------------------------------------------------------

E------5---8p5---5----------------------8-10brp8-----------
B----5---5-----8---8/10------10~-----10----------10~-------
G----------------------------------------------------------
D----------------------------------------------------------
A----------------------------------------------------------
E----------------------------------------------------------

E--------5-------------------------------------------------
B-----8b---8-5---------------------------------------------
G--------------8-7-5---------------------------------------
D--------------------7~------------------------------------
A----------------------------------------------------------
E----------------------------------------------------------


(2:54)

E----------------------------------------------------------
B----------------------------------------------------------
G-------------(5)----------------3---3---------------------
D--------------5----------5------3---3----3----------------
A----0-----5/7------------5------1---1----3----------------
E-----------------3----/7-----------------1----------------

E----------------------------------------------------------
B----------------------------------------------------------
G--------------5/7-7/9-9/12-12/14-14/17--------------------
D------7p5--7----------------------------------------------
A----------------------------------------------------------
E----------------------------------------------------------

E----------------------------------------------------------
B----------------------------------------------------------
G-------------(5)----------------3---3---------------------
D--------------5----------5------3---3----3----------------
A----0-----5/7------------5------1---1----3----------------
E-----------------3----/7-----------------1----------------

E-----------------------------15-----15-----15-----15------
B-------------------13-15-15b----15b----15b----15b---------
G-----14p12-14---14----------------------------------------
D----------------------------------------------------------
A----------------------------------------------------------
E----------------------------------------------------------

E-----15----15---------------------------------------------
B-----15b---15br--13-------------13-13-----13-13-----------
G--------------------14~---------14-14-----14-14-----------
D----------------------------------------------------------
A----------------------------------------------------------
E----------------------------------------------------------

E----------------------------------------------------------
B----------------------------------------------------------
G-----7*b-7*br-5-------------------------------------------
D-----------------7~--5-----------------------------/7~----
A------------------------7/5-3-5br-p3-5b----5br-p3---------
E----------------------------------------------------------

E----------------------------------------------------------
B----------------------------------------------------------
G---------5-7----5-7-7b-7br---7bbr--5----------------------
D------7------7------------------------7~-----5------------
A-----------------------------------------------7/5-3------
E----------------------------------------------------------

E----------------------------------------------------------
B----------------------------------------------------------
G----------------------------------------------------------
D------7p5-7p5--3~-----------------------------------------
A----------------------------------------------------------
E----------------------------------------------------------


Ending (I will tab until two guitar parts, I don't want to tab it. Anyways, 
it is a nice place to improvise, don't waste your time repicking that.)


E-----------------------------------------------8----------
B---------------------------------------------8---10~------
G-------7br-5-7b-~-------------------------/9--------------
D------------------------7~~-------------------------------
A----------------------------------------------------------
E----------------------------------------------------------
[ Tab from: http://www.guitartabs.cc/tabs/l/lynyrd_skynyrd/that_smell_tab.html ]
E--------------------15b-15b---15br--15-15p12-12-15-15p12--
B----------13-15-13----------------------------------------
G------/14-------------------------------------------------
D----------------------------------------------------------
A----------------------------------------------------------
E----------------------------------------------------------

E---12-15-15p12-12--15-15p12-12--15-15p12-12--15-15p12-----
B----------------------------------------------------------
G----------------------------------------------------------
D----------------------------------------------------------
A----------------------------------------------------------
E----------------------------------------------------------

E----15-15p12-12--15-15p12-12--15-15p12-12--15-15p12-------
B----------------------------------------------------13----
G-------------------------------------------------------14-
D----------------------------------------------------------
A----------------------------------------------------------
E----------------------------------------------------------

E----------------------------------------------------------
B----13-13----13-13---13-13---13-13---8-8---8-8/6-6/4------
G----14-14----14-14---14-14---14-14---9-9---9-9/7-7/5------
D----------------------------------------------------------
A----------------------------------------------------------
E----------------------------------------------------------

E---------------------------------------5--------5------5--
B-----4/1~----------------------------5---8*b--5------5----
G-----5/2~----------------7*b------7b*-------------7b*-----
D-----------------7p5-7~-----------------------------------
A----------------------------------------------------------
E----------------------------------------------------------

E-----------5------5---------------------------------------
B----8*b--5------5----8*b----------------------------------
G-------------7b*------------------------------------------
D----------------------------------------------------------
A----------------------------------------------------------
E----------------------------------------------------------

Then second guitar comes in...



E----15b-15b-15b-15b--15-12-15-15b-15b-15b-----------------
B-----------------------------------------------20b--------
G----------------------------------------------------------
D----------------------------------------------------------
A----------------------------------------------------------
E----------------------------------------------------------

E------------------15h17----15h17----15h17----15h17--------
B-----20-17/16--17-------17-------17-------17--------------
G----------------------------------------------------------
D----------------------------------------------------------
A----------------------------------------------------------
E----------------------------------------------------------

E--------15h17----15h17----15h17----15h17----15h17---------
B-----17-------17-------17-------17-------17---------------
G----------------------------------------------------------
D----------------------------------------------------------
A----------------------------------------------------------
E----------------------------------------------------------

E------20p17----20p17----20p17----20p17----20p17-----------
B------------17-------17-------17-------17-------17--------
G----------------------------------------------------------
D----------------------------------------------------------
A----------------------------------------------------------
E----------------------------------------------------------

E------20p17----20p17----20p17----20p17----20p17-----------
B------------17-------17-------17-------17-------17--------
G----------------------------------------------------------
D----------------------------------------------------------
A----------------------------------------------------------
E----------------------------------------------------------

E------20p17----20p17----20p17----20p17----20p17-----------
B------------17-------17-------17-------17-------17--------
G----------------------------------------------------------
D----------------------------------------------------------
A----------------------------------------------------------
E----------------------------------------------------------


Two guitar part


Guitar 1 (Collins)



E--------20b-20br----20b-20r----20b-20r----17h20p17--------
B---------------------------------------------------20-20b-
G----------------------------------------------------------
D----------------------------------------------------------
A----------------------------------------------------------
E----------------------------------------------------------



Guitar 2 (Gaines)


E----------------------------------------------------------
B----5-----------------------------------------------------
G----5-----7brp5---5----5------------5---------------------
D----7-----------7---------7p5---5h7-----------------------
A------------------------------7---------------------------
E----------------------------------------------------------


E----------------------------------------------------------
B----7--5--------------------------------------------------
G----7--5-----7brp5---------5---------------5--------------
D-------7-----------7--5h7--------7p5---5h7----7-----------
A-------------------------------------7--------------------
E----------------------------------------------------------



Guitar 1 (Collins)

E--------20b-20br----20b-20r----20b-20r----17h20p17--------
B---------------------------------------------------20-20b-
G----------------------------------------------------------
D----------------------------------------------------------
A----------------------------------------------------------
E----------------------------------------------------------


Guitar 2 (Gaines)


E----------------------------------------------------------
B-------8----8/10------------------------------------------
G---/9----9----------7brp5----7b------5-7-5---5------------
D--------------------------7----------------7--------------
A----------------------------------------------------------
E----------------------------------------------------------

E-----------5----------------5-----------------------------
B---------------8b-------------8---------------------------
G-----5-7b------------------------7br--5-------------------
D---7-------------------------------------7----------------
A----------------------------------------------------------
E----------------------------------------------------------








Guitar 1 (Collins)

E----------------------------------------------------------
B----------------13--15b--15b---15br-----------------------
G---------12-14------------------------14~-----------------
D--12-14---------------------------------------------------
A----------------------------------------------------------
E----------------------------------------------------------


Guitar 2 (Gaines)

E-----------------12--15b--15b----15br---12~---------------
B-----------13-15------------------------------------------
G----12-14-------------------------------------------------
D----------------------------------------------------------
A----------------------------------------------------------
E----------------------------------------------------------





Guitar 1 (Collins)

E----------------------------------------15b--15brp12-15-15
B-----------------13--15b-15b----15brp13-------------------
G----------12-14-------------------------------------------
D---12-14--------------------------------------------------
A----------------------------------------------------------
E----------------------------------------------------------

Guitar 2 (Gaines)

E----------------12-15b-15bp12--20b-20brp17-20-20----------
B----------13-15-------------------------------------------
G----12-14-------------------------------------------------
D----------------------------------------------------------
A----------------------------------------------------------
E----------------------------------------------------------






Guitar 1 (Collins)

E----------------------------------------------------------
B---13-12--------------------------------------------------
G---------14-12--------------------------------------------
D----------------------------------------------------------
A----------------------------------------------------------
E----------------------------------------------------------

Guitar 2 (Gaines)

E----------------------------------------------------------
B-------------------13-12----------------------------------
G---------------------------14-12--------------------------
D----------------------------------------------------------
A----------------------------------------------------------
E----------------------------------------------------------







Guitar 1 (Collins)

E----------------------------------------------------------
B---15-13-12-----------------------------------------------
G-------------14-------------------------------------------
D----------------------------------------------------------
A----------------------------------------------------------
E----------------------------------------------------------

Guitar 2 (Gaines)

E----------------------------------------------------------
B--------------------15-13-12------------------------------
G-----------------------------14---------------------------
D----------------------------------------------------------
A----------------------------------------------------------
E----------------------------------------------------------






Guitar 1 (Collins)

E---12-----------------------------------------------------
B-------15-13-12-------------------------------------------
G----------------------------------------------------------
D----------------------------------------------------------
A----------------------------------------------------------
E----------------------------------------------------------

Guitar 2 (Gaines)

E--------------------12------------------------------------
B------------------------15-13-12--------------------------
G----------------------------------------------------------
D----------------------------------------------------------
A----------------------------------------------------------
E----------------------------------------------------------






Guitar 1 (Collins)

E---13-12-----------15-13-12-----15b-15b-15b-15b-15b-15b---
B---------15-13--------------15----------------------------
G----------------------------------------------------------
D----------------------------------------------------------
A----------------------------------------------------------
E----------------------------------------------------------

E---13-12-----------15-13-12-----15b-15b-15b-15b-15b-15b---
B---------15-13--------------15----------------------------
G----------------------------------------------------------
D----------------------------------------------------------
A----------------------------------------------------------
E----------------------------------------------------------

Comments