Lynyrd Skynyrd - T For Texas Chords & Tabs

 

T For Texas Chords & Tabs

Lynyrd Skynyrd Chords & Tabs

Version: 2 Type: Tab 0 ratings
1 star 2 stars 3 stars 4 stars 5 stars
comments

T For Texas Tab

Lynyrd Skynyrd
T For Texas Intro
Tabbed by: Josua Romano alias Ronnie Van Zant (joro@gmx.ch)


E||-----------------------------------------------------------------
H||-----------------------------------------------------------------
G||--------------2---------------2---------------2---------------2--
D||----------2-4-------------2-4-------------2-4-------------2-4----
A||0-0-h3-h4-------0-0-h3-h4-------0-0-h3-h4-------0-0-h3-h4--------
E||-----------------------------------------------------------------

E||----------------------------3-1----------------------------------
H||--------------3-----------3-----3--------------------------------
G||----------2-4-----------------------------------2---------------2
D||0-0-h3-h4-------0-0-h3-h4-------------------2-4-------------2-4--
A||----------------------------------0-0-h3-h4-------0-0-h3-h4------
E||-----------------------------------------------------------------
[ Tab from: http://www.guitartabs.cc/tabs/l/lynyrd_skynyrd/t_for_texas_tab_ver_2.html ]
E||-----------------------------------------------------------------
H||----------------------------1-3----------------------------------
G||--------------------------2-------------------2---------------4--
D||--------------2-0-0-h2-h4-----------------2-4-------------2-4----
A||----------2-4-------------------0-0-h3-h4-------0-0-h3-h4--------
E||0-0-h3-h4--------------------------------------------------------

E||---------------------
H||---------------------
G||------------2-0------
D||----------2-----2----
A||0-0-h3-h4---------3-0
E||---------------------

E||---------------
H||---------------
G||--------------2
D||----------2-4--
A||0-0-h3-h4------
E||---------------
repeat four times!

E||--------------------------------------------------------------
H||--------3---------------2\3/2---------------------------------
G||----2-4-------------2-2---------------------2---------------2-
D||0-0-------0-0-h3-h4---------------------2-4-------------2-4---
A||------------------------------0-0-h3-h4-------0-0-h3-h4-------
E||--------------------------------------------------------------

E||-------------------------------------------------------------------
H||------------------------------2\3/2--------------------------------
G||--------------------------2-2---------------------2---------------2
D||--------------2-0-0-h3-h4---------------------2-4-------------2-4--
A||----------2-4-----------------------0-0-h3-h4-------0-0-h3-h4------
E||0-0-h3-h4----------------------------------------------------------

if someone have the rest of the song, please send me a e-mail!! thx Ronnie Van Zant
Comments