Lynyrd Skynyrd - Sweet Home Alabama Chords & Tabs

 

Sweet Home Alabama Chords & Tabs

Lynyrd Skynyrd Chords & Tabs

Version: 9 Type: Tab 0 ratings
1 star 2 stars 3 stars 4 stars 5 stars
comments

Sweet Home Alabama Tab

   
Band - Lynyrd Skynyrd
Song - Sweet Home Alabama

Tuning: Gtr I (E A D G B E)
        Gtr II (E A D G B E)
        Gtr III (E A D G B E)

  Gtrs II, III
|---------|---------|---------------------|
|---------|---------|------3----------3---|
|---------|---------|--------2--------0---|
|---------|---------|-0--0-----0----------|
|---------|---------|------------3--3---5-|
|---------|---------|---------------------|


  Gtr I
|-------------------------|---------------------|
|-------------------------|-3-------------------|
|-------------------------|---------------------|
|---------------------3-4-|---------------------|
|-------------------------|---------------------|
|-------------------------|---------------------|
|
| Gtrs II, III
|-------------------------|---------------------|
|------3------------------|------3----------3---|
|------0------------------|--------2--------0---|
|---------------0-2-0-----|-0--0-----0----------|
|---------0-1-2-------1-2-|------------3--3---5-|
|-3--3--------------------|---------------------|


|-------------------------------|
|-(3)----(3)--------------------|
|-------------------------------|
|-------------------------------|
|-------------------------------|
|-------------------------------|
|
|-------------------------------|
|---------3---------------------|
|---------0---------------------|
|-------------------------------|
|--------------2-----3-----4----|
|--3---3---------3-3---3-3---3--|


|---------------------|--------------------|---------------------|
|---------------------|--------------------|---------------------|
|------2--------------|--------------------|------2--------------|
|------0----------5---|--------------------|------0----------5---|
|-----------------3---|------5-------5-----|-----------------3---|
|---------------------|------3-------3-----|---------------------|
|
| Gtr II
|---------------------|--------------------|---------------------|
|------3----------3---|------3-------3-----|------3----------3---|
|--------2--------0---|------0-------0-----|--------2-0------0---|
|----------0----------|--------------------|---------------------|
|-5--5-------3--3---5-|----------------2-3-|-5--5-------3--3---5-|
|---------------------|-3--3----3--3-------|---------------------|


|--------------------|---------------------|--------------------|
|--------------------|---------------------|--------------------|
|--------------------|------2--------------|--------------------|
|--------------------|------0----------5---|--------------------|
|------5-------5-----|-----------------3---|------5-------5-----|
|------3-------3-----|---------------------|------3-------3-----|
|
|--------------------|---------------------|--------------------|
|------3-------3-----|------3----------3---|------3-------3-----|
|------0-------0-----|--------2-0------0---|------0-------0-----|
|--------------------|---------------------|--------------------|
|----------------2-3-|-5--5-------3--3---5-|----------------3-4-|
|-3--3----3--3-------|---------------------|-3--3----3--3-------|


|---------------------|--------------------|---------------------|
|---------------------|--------------------|---------------------|
|------2--------------|--------------------|------2--------------|
|------0----------5---|--------------------|------0----------5---|
|-----------------3---|------5-------5-----|-----------------3---|
|---------------------|------3-------3-----|---------------------|
|
|---------------------|--------------------|---------------------|
|------3----------3---|------3-------3-----|------3----------3---|
|--------2--------0---|------0-------0-----|--------2--------0---|
|----------0----------|--------------------|----------0----------|
|-5--5-------3--3---5-|----------------3-4-|-5--5-------3--3---5-|
|---------------------|-3--3----3--3-------|---------------------|


|--------------------|---------------------|--------------------|
|--------------------|---------------------|--------------------|
|--------------------|------2--------------|--------------------|
|--------------------|------0----------5---|--------------------|
|------5-------5-----|-----------------3---|------5-------5-----|
|------3-------3-----|---------------------|------3-------3-----|
|
|--------------------|---------------------|--------------------|
|------3-------3-----|------3----------3---|------3-------3-----|
|------0-------0-----|--------2--------0---|------0-------0-----|
|--------------------|----------0----------|--------------------|
|----------------3-4-|-5--5-------3--3---5-|----------------3-4-|
|-3--3----3--3-------|---------------------|-3--3----3--3-------|


|-1-2-10-10-(10)-10---------------------|-----------------------------------|
|------------------------------13--13---|-----------------------------------|
|-------------------11------------------|----------12---12------------------|
|------------------------13-14----------|-----------------------------------|
|---------------------------------------|-12-13-14---------10-(10)----------|
|---------------------------------------|-----------------------------------|
|
|---------------------------------------|-----------------------------------|
|-------------3---------------------3---|-------------3---------------3-----|
|-----------------2-----------------0---|-------------0---------------0-----|
|----------------------0----------------|-----------------------------------|
|-5----5------------------3-----3-----5-|-------------------------------3-4-|
|---------------------------------------|--3-----3--------------3---3-------|


|-------10-10---10---------------------|
|-----------------------------13--13---|
|-10-11------------11------------------|
|-----------------------13-14----------|
|--------------------------------------|
|--------------------------------------|
|
|--------------------------------------|
|-------------3--------------------3---|
|----------------2-----------------0---|
|---------------------0----------------|
|--5-----5---------------3-----3-----5-|
|--------------------------------------|


|-----------------------------------|------------------------|
|-----------------------------------|------------------------|
|----------12---12------------------|------------------------|
|-----------------------------------|------------------------|
|-12-13-14---------10-(10)----------|------12----------10----|
|-----------------------------------|------10-----------8----|
|
|-----------------------------------|------------------------|
|-------------3---------------3-----|-------3-----------3----|
|-------------0---------------0-----|---------2---------0----|
|-----------------------------------|-----------0------------|
|-------------------------------3-4-|-5--5--------3--3----5--|
|--3-----3--------------3---3-------|------------------------|


|--------------------|---------------------|--------------------|
|--------------------|---------------------|--------------------|
|--------------------|------2--------------|--------------------|
|--------------------|------0----------5---|--------------------|
|------5-------5-----|-----------------3---|------5-------5-----|
|------3-------3-----|---------------------|------3-------3-----|
|
|--------------------|---------------------|--------------------|
|------3-------3-----|------3----------3---|------3-------3-----|
|------0-------0-----|--------2--------0---|------0-------0-----|
|--------------------|----------0----------|--------------------|
|----------------3-4-|-5--5-------3--3---5-|----------------3-4-|
|-3--3----3--3-------|---------------------|-3--3----3--3-------|


|---------------------|--------------------|---------------------|
|---------------------|--------------------|---------------------|
|------2--------------|--------------------|------2--------------|
|------0----------5---|--------------------|------0----------5---|
|-----------------3---|------5-------5-----|-----------------3---|
|---------------------|------3-------3-----|---------------------|
|
|---------------------|--------------------|---------------------|
|------3----------3---|------3-------3-----|------3----------3---|
|--------2--------0---|------0-------0-----|--------2--------0---|
|----------0----------|--------------------|----------0----------|
|-5--5-------3--3---5-|----------------3-4-|-5--5-------3--3---5-|
|---------------------|-3--3----3--3-------|---------------------|


|------------------|--------------------|---------------|
|------------------|--------------------|---------------|
|------------------|-2--2-4-2-----------|---------------|
|------------------|-0--0-0---5--5-7-5--|-------2-----5-|
|------5-------5---|----------3--3-3----|-5--5-----5--3-|
|------3-------3---|--------------------|-3--3--3--3----|
|
|------------------|--------------------|---------------|
|------3-------3---|-3--3---------------|---------------|
|------0-------0---|-2--2-4-2-5--5------|-------0-----5-|
|------------------|-0--0-0---5--5-7-5--|-5--5--2--5--5-|
|------------------|----------3--3-3----|-5--5-----5--3-|
|-3--3----3--3---3-|--------------------|-3--3--3--3----|


|----------------------|---------------|----------------------|
|----------------------|---------------|----------------------|
|-2--2--4-2------------|---------------|-2--2--4-2------------|
|-0--0--0----5--5-7-5--|-------2-----5-|-0--0--0----5--5-7-5--|
|------------3--3-3----|-5--5-----5--3-|------------3--3-3----|
|----------------------|-3--3--3--3----|----------------------|
|
|----------------------|---------------|----------------------|
|-3--3-----------------|---------------|----3-----------------|
|-2--2--4-2--5--5------|-------0-----5-|-2--2--4-2--5--5------|
|-0--0--0----5--5-7-5--|-5--5--2--5--5-|-0--0-------5--5-7-5--|
|------------3--3-3----|-5--5-----5--3-|------------3--3-3----|
|----------------------|-3--3--3--3----|----------------------|


|-----------------|----------------------|--------------15--15--|
|-----------------|----------------------|----------------------|
|-----------------|-2--2-4-2-------------|----------------------|
|-------2------5--|-0--0-0----5--5--7-5--|----------------------|
|-5--5-----5---3--|-----------3--3--3----|-5--5-----------------|
|-3--3--3--3------|----------------------|-3--3-----------------|
|
|-----------------|----------------------|----------------------|
|-----------------|-3--3-----------------|----------------------|
|-------0------5--|-2--2-4-2--5--5-------|----------------------|
|-5--5--2--5---5--|-0--0-0----5--5--7-5--|-5--5-(5)--5----------|
|-5--5-----5---3--|-----------3--3--3----|-5--5-(5)--5----------|
|-3--3--3--3------|----------------------|-3--3-(3)--3----------|


|-14-------------------------------------|
|----15-----15----------13-12-13-12-10-8-|
|-------14-----------14------------------|
|----------------------------------------|
|----------------------------------------|
|----------------------------------------|
|
|----------------------------------------|
|------------3-----------------3---------|
|--------------2---------------0---------|
|----------------0-----------------------|
|--5-----5---------3-----3-------------5-|
|----------------------------------------|


|----------3-(3)----------|-1-2-10-10-(10)-10---------------------|
|-8------5----------------|------------------------------13--13---|
|----9-7------------------|-------------------11------------------|
|-------------------------|------------------------13-14----------|
|-------------------------|---------------------------------------|
|-------------------------|---------------------------------------|
|
|-------------------------|---------------------------------------|
|--------3----------3-----|-------------3---------------------3---|
|--------0----------0-----|-----------------2-----------------0---|
|-------------------------|----------------------0----------------|
|---------------------3-4-|-5----5------------------3-----3-------|
|-3--3--------3---3-------|---------------------------------------|


|-----------------------------------|-----------------------|-------------|
|-----------------------------------|-----------------------|-------------|
|----------12---12------------------|-----------------------|-------------|
|-----------------------------------|-----------------------|-------------|
|-12-13-14---------10-(10)----------|------12----------10---|------5------|
|-----------------------------------|------10-----------8---|------3------|
|
|-----------------------------------|-----------------------|-------------|
|-------------3---------------3-----|-------3-----------3---|------3------|
|-------------0---------------0-----|---------2---------0---|------0------|
|-----------------------------------|-----------0-----------|-------------|
|-------------------------------3-4-|-5--5--------3--3----5-|-------------|
|--3-----3--------------3---3-------|-----------------------|-3--3--------|


|---------------------|--------------------|---------------------|
|---------------------|--------------------|---------------------|
|------2--------------|--------------------|------2--------------|
|------0----------5---|--------------------|------0----------5---|
|-----------------3---|------5-------5-----|-----------------3---|
|---------------------|------3-------3-----|---------------------|
|
|---------------------|--------------------|---------------------|
|------3----------3---|------3-------3-----|------3----------3---|
|--------2--------0---|------0-------0-----|--------2--------0---|
|----------0----------|--------------------|----------0----------|
|-5--5-------3--3---5-|----------------3-4-|-5--5-------3--3---5-|
|---------------------|-3--3----3--3-------|---------------------|

[ Tab from: http://www.guitartabs.cc/tabs/l/lynyrd_skynyrd/sweet_home_alabama_tab_ver_9.html ]
|--------------------|---------------------|----------------------|
|--------------------|---------------------|----------------------|
|--------------------|------2--------------|----------------------|
|--------------------|------0----------5---|----------------------|
|------5-------5-----|-----------------3---|------5--(5)----5-----|
|------3-------3-----|---------------------|------3--(3)----3-----|
|
|--------------------|---------------------|----------------------|
|------3-------3-----|------3----------3---|------3---------3-----|
|------0-------0-----|--------2--------0---|------0---------0-----|
|--------------------|----------0----------|----------------------|
|----------------3-4-|-5--5-------3--3---5-|------------------3-4-|
|-3--3----3--3-------|---------------------|-3--3-----3---3-------|


|--------------------|----------------|---------------------|
|--------------------|----------------|---------------------|
|-2--2-4-2-----------|----------------|-2--2-4-2------------|
|-0--0-0---5--5-7-5--|-------2-----5--|-0--0-0----5--5-7-5--|
|----------3--3-3----|-5--5-----5--3--|-----------3--3-3----|
|--------------------|-3--3--3--3-----|---------------------|
|
|--------------------|----------------|---------------------|
|--------------------|----------------|-3--3----------------|
|-7----4---5--5------|-------0-----5--|-2--2-4-2--5--5------|
|-7--7-0-7-5--5-7-5--|-5--5--2--5--5--|-0--0-0----5--5-7-5--|
|-5--5---5-----------|-5--5-----5--3--|-----------3--3-3----|
|----------8--8-8----|-3--3--3--3-----|---------------------|


|---------------|----------------------|-----------------|
|---------------|----------------------|-----------------|
|---------------|-2--2--4-2------------|-----------------|
|-------2-----5-|-0--0--0----5--5-7-5--|-------2------5--|
|-5--5-----5--3-|------------3--3-3----|-5--5-----5---3--|
|-3--3--3--3----|----------------------|-3--3--3--3------|
|
|---------------|----------------------|-----------------|
|---------------|-3--3-----------------|-----------------|
|-------0-----5-|-2--2--4-2--5--5------|-------0------5--|
|-5--5--2--5--5-|-0--0--0----5--5-7-5--|-5--5--2--5---5--|
|-5--5-----5--3-|------------3--3-3----|-5--5-----5---3--|
|-3--3--3--3----|----------------------|-3--3--3--3------|


|----------------------|-------------------|
|----------------------|-------------------|
|-2--2--4-2------------|-------------------|
|-0--0--0----5--5-7-5--|-------------------|
|------------3--3-3----|-5--5------5-------|
|----------------------|-3--3------3-------|
|
|----------------------|-------------------|
|-3--3-----------------|-------------------|
|-2--2--4-2--5--5------|-------------------|
|-0--0--0----5--5-7-5--|-5--5-(5)----3--2--|
|------------3--3-3----|-5--5-(5)----------|
|----------------------|-3--3-(3)----------|


|-1-2-10-10-(10)-10-----------------------|
|------------------------------13--13-----|
|-------------------11--------------------|
|------------------------13-14------------|
|-----------------------------------------|
|-----------------------------------------|
|
|-----------------------------------------|
|-------------3---------------------3-----|
|-----------------2-----------------0-----|
|-0----0---------------0------------------|
|-------------------------3-----3------5--|
|-----------------------------------------|


|---------------------------------------|
|---------------------------------------|
|----------12---12----------------------|
|---------------------------------------|
|-12-13-14---------10-(10)----(10)------|
|---------------------------------------|
|
|---------------------------------------|
|-------------3-----------------3-------|
|-------------0-----------------0-------|
|---------------------------------------|
|-----------------------------------3-4-|
|--3-----3--------------3---3-----------|


|-------10-10---10---------------------|------------------------------------|
|-----------------------------13--13---|------------------------------------|
|-10-11------------11------------------|----------12---12-------------------|
|-----------------------13-14----------|------------------------------------|
|--------------------------------------|-12-13-14---------10-(10)-----------|
|--------------------------------------|------------------------------------|
|
|--------------------------------------|------------------------------------|
|-------------3--------------------3---|-------------3---------------3------|
|----------------2-----------------0---|-------------0---------------0------|
|---------------------0----------------|------------------------------------|
|--5-----5---------------3-----3-----5-|-------------------------------3-4--|
|--------------------------------------|--3-----3--------------3---3--------|


|-----------------------|--------------------|---------------------|
|-----------------------|--------------------|---------------------|
|-----------------------|--------------------|------2--------------|
|-----------------------|--------------------|------0----------5---|
|------12----------10---|------5-------5-----|-----------------3---|
|------10-----------8---|------3-------3-----|---------------------|
|
|-----------------------|--------------------|---------------------|
|-------3-----------3---|------3-------3-----|------3----------3---|
|---------2---------0---|------0-------0-----|--------2--------0---|
|-----------0-----------|--------------------|----------0----------|
|-5--5--------3--3----5-|----------------3-4-|-5--5-------3--3---5-|
|-----------------------|-3--3----3--3-------|---------------------|


|--------------------|---------------------|--------------------|
|--------------------|---------------------|--------------------|
|--------------------|------2--------------|--------------------|
|--------------------|------0----------5---|--------------------|
|------5-------5-----|-----------------3---|------5-------5-----|
|------3-------3-----|---------------------|------3-------3-----|
|
|--------------------|---------------------|--------------------|
|------3-------3-----|------3----------3---|------3-------3-----|
|------0-------0-----|--------2--------0---|------0-------0-----|
|--------------------|----------0----------|--------------------|
|----------------3-4-|-5--5-------3--3---5-|----------------3-4-|
|-3--3----3--3-------|---------------------|-3--3----3--3-------|


|---------------------|--------------------|---------------------|
|---------------------|--------------------|---------------------|
|------2--------------|--------------------|-2--2-4-2------------|
|------0----------5---|--------------------|-0--0-0----5--5-7-5--|
|-----------------3---|------5--(5)----5---|-----------3--3-3----|
|---------------------|------3--(3)----3---|---------------------|
|
|---------------------|--------------------|---------------------|
|------3----------3---|------3---------3---|-3--3----------------|
|--------2--------0---|------0---------0---|-2--2-4-2--5--5------|
|----------0----------|--------------------|-0--0-0----5--5-7-5--|
|-5--5-------3--3---5-|--------------------|-----------3--3-3----|
|---------------------|-3--3-----3---3---3-|---------------------|


|---------------|----------------------|---------------|
|---------------|----------------------|---------------|
|---------------|-2--2--4-2------------|---------------|
|-------2-----5-|-0--0--0----5--5-7-5--|-------2-----5-|
|-5--5-----5--3-|------------3--3-3----|-5--5-----5--3-|
|-3--3--3--3----|----------------------|-3--3--3--3----|
|
|---------------|----------------------|---------------|
|---------------|-3--3-----------------|---------------|
|-------0-----5-|-2--2--4-2--5--5------|-------0-----5-|
|-5--5--2--5--5-|-0--0--0----5--5-7-5--|-5--5--2--5--5-|
|-5--5-----5--3-|------------3--3-3----|-5--5-----5--3-|
|-3--3--3--3----|----------------------|-3--3--3--3----|


|---------------------|----------------|----------------------|
|---------------------|----------------|----------------------|
|-2--2--4-2-----------|----------------|-2--2--4-2------------|
|-0--0--0---5--5-7-5--|-------2------5-|-0--0--0---5--5-7-5---|
|-----------3--3-3----|-5--5-----5---3-|-----------3--3-3-----|
|---------------------|-3--3--3--3-----|----------------------|
|
|---------------------|----------------|----------------------|
|-3--3----------------|----------------|-3--3-----------------|
|-2--2--4-2-5--5------|-------0------5-|-2--2--4-2-5--5-------|
|-0--0--0---5--5-7-5--|-5--5--2--5---5-|-0--0--0---5--5-7-5---|
|-----------3--3-3----|-5--5-----5---3-|-----------3--3-3-----|
|---------------------|-3--3--3--3-----|----------------------|


|-------------15--15--|-14----------------------------------------|
|---------------------|----15-----15-----(15)----13-12-13-12-10-8-|
|---------------------|-------14--------------14------------------|
|---------------------|-------------------------------------------|
|-5--5-(5)------------|-------------------------------------------|
|-3--3-(3)------------|-------------------------------------------|
|
|---------------------|-------------------------------------------|
|---------------------|------------3--------------------3---------|
|---------------------|--------------2------------------0---------|
|-5--5------5---------|----------------0--------------------------|
|-5--5------5---------|--5-----5-----------3------3-------------5-|
|-3--3------3---------|-------------------------------------------|


|----------------------|
|-8------8-------------|
|----9-7---------------|
|----------------------|
|----------------------|
|----------------------|
|
|----------------------|
|--------3-------3-----|
|--------0-------0-----|
|----------------------|
|------------------3-4-|
|-3--3------3--3-------|


|-----10-10-(10)-10---------------------|
|-6-7--------------------------13--13---|
|-------------------11------------------|
|------------------------12-13----------|
|---------------------------------------|
|---------------------------------------|
|
|---------------------------------------|
|-------------3---------------------3---|
|-----------------2-----------------0---|
|----------------------0----------------|
|-5----5------------------3-----3-----5-|
|---------------------------------------|


|---------------------------------------|
|---------------------------------------|
|----------12---12----------------------|
|---------------------------------------|
|-12-13-14---------10-(10)----(10)------|
|---------------------------------------|
|
|---------------------------------------|
|-------------3-----------------3-------|
|-------------0-----------------0-------|
|---------------------------------------|
|-----------------------------------3-4-|
|--3-----3--------------3---3-----------|


|-------10-10-(10)-10---------------------|-----------------------------------|
|--------------------------------13--13---|-----------------------------------|
|-10-11---------------11------------------|----------12---12------------------|
|--------------------------13-14----------|-----------------------------------|
|-----------------------------------------|-12-13-14---------10-(10)----------|
|-----------------------------------------|-----------------------------------|
|
|-----------------------------------------|-----------------------------------|
|---------------3---------------------3---|-------------3---------------3-----|
|-------------------2-----------------0---|-------------0---------------0-----|
|------------------------0----------------|-----------------------------------|
|--5-----5------------------3-----3-----5-|-------------------------------3-4-|
|-----------------------------------------|--3-----3--------------3---3-------|


|-------10-10---10---------------------|-----------------------------------|
|-----------------------------13--13---|-----------------------------------|
|-10-11------------11------------------|----------12---12------------------|
|-----------------------13-14----------|-----------------------------------|
|--------------------------------------|-12-13-14---------10-(10)----------|
|--------------------------------------|-----------------------------------|
|
|--------------------------------------|-----------------------------------|
|-------------3--------------------3---|-------------3---------------3-----|
|----------------2-----------------0---|-------------0---------------0-----|
|---------------------0----------------|-----------------------------------|
|--5-----5---------------3-----3-----5-|-------------------------------3-4-|
|--------------------------------------|--3-----3--------------3---3-------|


|-------10-10---10---------------------|---------------------------------------|
|-----------------------------13--13---|---------------------------------------|
|-10-11------------11------------------|----------12---12----------------------|
|-----------------------13-14----------|---------------------------------------|
|--------------------------------------|-12-13-14---------10-(10)----(10)------|
|--------------------------------------|---------------------------------------|
|
|--------------------------------------|---------------------------------------|
|-------------3--------------------3---|-------------3-----------------3-------|
|----------------2-----------------0---|-------------0-----------------0-------|
|---------------------0----------------|---------------------------------------|
|--5-----5---------------3-----3-----5-|-----------------------------------3-4-|
|--------------------------------------|--3-----3--------------3---3-----------|


|-------10-10---10---------------------|----------------------15--15--|-14----*|
|-----------------------------13--13---|------------------------------|-------*|
|-10-11------------11------------------|----------12---12-------------|-------*|
|-----------------------13-14----------|------------------------------|-------*|
|--------------------------------------|-12-13-14---------10----------|-------*|
|--------------------------------------|------------------------------|-------*|
|
|--------------------------------------|------------------------------|-------*|
|-------------3--------------------3---|-------------3----------------|-------*|
|----------------2-----------------0---|-------------0----------------|-------*|
|---------------------0----------------|------------------------------|-------*|
|--5-----5---------------3-----3-----5-|------------------------------|-------*|
|--------------------------------------|--------3---------------------|-------*|
Comments