Lynyrd Skynyrd - On The Hunt Chords & Tabs

 

On The Hunt Chords & Tabs

Lynyrd Skynyrd Chords & Tabs

Version: 4 Type: Tab 0 ratings
1 star 2 stars 3 stars 4 stars 5 stars
comments

On The Hunt Tab

   
 			     On the Hunt- Lynyrd Skynyrd
-------------------------------------------------------------------------------
Tabbed by:mike
Email:christinamichael@bellsout.net

Tuning: standard e
  intro: play 4 times
    B            A        E      B            A
e|----------------------------------------------------|
B|----------------------------------------------------|
G|--4------------2---------------4------------2-------|
D|--4------4-----2--------2------4------4-----2-------|
A|--2--2/5---5-4-0--------2--x-x-2--2/5---5-4-0--x-x--|
E|------------------4h5p4-0---------------------------|

  lyrics same as above  palm mute with picking hand

  i said babe                       momma i don't know your name
         B           A       E      B                      A
e|--------------------------------------------------------------------------------------|
B|--------------------------------------------------------------------------------------|
G|-------4-----------2--------------4----------------------2----------------------------|
D|-------4-----4-----2-------2------4------------4---------2----------------------------|
A|-------2-2/5---5-4-0-------2-x-x--2------2/5------5--4---0----------------------------|
E|---------------------4h5p4-0----------------------------------------------------------|

   That's the wayeah, suger i can play your game
   Every night when we leave the hoiday, i see you standing round
   you wanna ride in my big black car,    wanna go up town
       B
e|--------------------------------------------------------------------|
B|--------------------------------------------------------------------|
G|-----4------------------2---------------4---------------2----2------|
D|-----4---------4--------2--------2------4---------4-----2----2------|
A|-----2----2/5-----5--4--0--------2-x-x--2-----2/5---5-4-0----0------|
E|---------------------------4h5p4-0-------------------------------3--|

  CHorus:
   i know who you are babe, i know what the call ya for

e|---------------------------------------------------------------------------------------|
B|---------------------------------------------------------------------------------------|
G|--9-------------\4-------/7--------------\2--------------------------------------------|
D|--9-------------\4-------/5--------------\2--------------------------------------------|
A|--7-------------\2-------/5--------------\0----0--0-0-0-3p0----------------------------|
E|---------------------------------------------------------------------------------------|
[ Tab from: http://www.guitartabs.cc/tabs/l/lynyrd_skynyrd/on_the_hunt_tab_ver_4.html ]
     never put you down babe  i just like you  baby        i'm on the hunt
e|--------------------------------------------------------------------------------------|
B|--------------------------------------------------------------------------------------|
G|---9------------\4--------/7------------\2---------4---3------------------------------|
D|---9------------\4--------/7------------\2---------5---4------------------------------|
A|---7------------\2--------/5------------\0---------5---4------------------------------|
E|---------------------------------------------------3---2------------------------------|

   play 2x without palm muting

       B           A       E      B                      A
e|--------------------------------------------------------------------------------------|
B|--------------------------------------------------------------------------------------|
G|-------4-----------2--------------4----------------------2----------------------------|
D|-------4-----4-----2-------2------4------------4---------2----------------------------|
A|-------2-2/5---5-4-0-------2-x-x--2------2/5------5--4---0----------------------------|
E|---------------------4h5p4-0----------------------------------------------------------|

  I know it baby, people gonna talk about you and me
  But let me say one thing mama, i do as i please
  And if you want to love me baby, ooohhh i'm your man
  And all those high faluttin' society people, i don't care if they don't              understand

Chorus  this time vibrate chords

play intro 2 times

  play this 4 time

e|-------------------------------------------------------------|
B|-------------------------------------------------------------|
G|-4--4--2--4--4-2---7---2--2---------------------3/4-------2--|
D|-4--4--2--4--4-2---7---2--2------2--------2-----4/5-------2--|
A|-2--2--0--2--2-0---5---0--0--0-0-2--------2-----4/5-----5p0--|
E|---------------------------------0--0--0--0-0-0-2/3-x-x-3p0--|

  play chorus

  my daddy told me, a long time ago
  there's a two things, two things that you should know
  and in these two things, you must have your pride
  and thatsa horse and a woman yeah
  both of them you ride little sister

chorus  play 2 times

e|------------------------------------------------------|
B|------------------------------------------------------|
G|-2-2---------9---9-9-9\4---4-4-4/7---7-7-7\2---2-2-2--|
D|-2-2---------9---9-9-9\4---4-4-4/7---7-7-7\2---2-2-2--|
A|-0-0-0-0-0-0-7-x-7-7-7\2-x-2-2-2/5-x-5-5-5\0-x-0-0-0--|
E|------------------------------------------------------|

  repeat until song fades out

 this is the closest i've been able to get to the actual song  it looks harder than it 
 practice with the song and you can pick it up quickly


| /  slide up
| \  slide down
| h  hammer-on
| p  pull-off
| ~  vibrato
| +  harmonic
| x  Mute note
===============================================================================
Comments