Lynyrd Skynyrd - Needle And The Spoon Chords & Tabs

 

Needle And The Spoon Chords & Tabs

Lynyrd Skynyrd Chords & Tabs

Version: 6 Type: Tab

Needle And The Spoon Tab

Lynyrd Skynyrd - The Needle and the Spoon            


Rhythm

Intro
E||-------------------------|--------------------------|
B||-------3---3-------------|--------------------------|
G||-------------------0-----|--------------------------| play 3 times*
D||--0-------------0-----0--|--3--3b---0----0----------|
A||-------------3-----------|------------------0h2-2h3-|
E||-------------------------|--------------------------|


------------------------|-----------------------|
-------3---3------------|-----------------------|
-------------------0----|--1b2------------------|
--0-------------0-------|------5--3-------------|
-------------3----------|------------5-------5/-|
------------------------|-----------------------|


------------------------|--------------------------|-------------------------|---------------------------|
------------------------|--------------------------|-------------------------|-----------3---------------|
--7----7---7/5-----5/---|--10--10----7-------------|--7----7---7/5-----5-----|-----------2----2----------|
--7----7---7/5-----5/---|--10--10----7----7--2--5/-|--7----7---7/5--5--5-----|-----------0----0----------|
--5----5---5/3--3--3/---|--8---8-----5----5--0--3/-|--5----5---5/3--3--3-----|--3--3-------------0h2-2h3-|
------------------------|--------------------------|----------------------0--|--1--1--0------------------|


Verse
|--------------------------|--------------------------|---------------------------|
|--------3---3-------------|--------------------------|--------3------------------|
|--------------------0-----|--------------------------|-----2------0-------0----0-|
|---0-------------0-----0--|--3--3b---0----0----------|--0--------------0-----0---|
|--------------3-----------|------------------0h2-2h3-|--------------3------------|
|--------------------------|--------------------------|---------------------------|


---------------------------|
---------------------------|
-----0----------2----------| play 2 times
--3b----3--0---------------|
-------------------0h2-2h3-|
---------------------------|


Chorus
-----------------1--|-------------------|
--3--------------1--|-------------------|
--2--------------2--|----------------5--|
--0--------------3--|----------------5--|
--0--------------3--|----------------3--|
-----------------1--|-------------------|



----------------3--|--------------------|------------------------|
----------------3--|--------------------|------------------------|
----------------0--|--------------------|--7----7---7/5-----5/---|
----------------0--|--------------2-----|--7----7---7/5-----5/---|
-------------------|--------------0--3--|--5----5---5/3--3--3/---|
----------------3--|--------------------|------------------------|


                                                     
--------------------------|-------------------------|
--------------------------|-------------------------|
--10--10----7-------------|--7----7---7/5-----5-----|
--10--10----7----7--2--5/-|--7----7---7/5--5--5-----|
--8---8-----5----5--0--3/-|--5----5---5/3--3--3-----|
--------------------------|----------------------0--|


                                                                              
----------------------------|
-----------3----------------|
-----------2----2-----------|
-----------0----0-----------|
--3--3-------------0h2-2h3--|
--1--1--0-------------------|


Verse again

Chorus again

[ Tab from: http://www.guitartabs.cc/tabs/l/lynyrd_skynyrd/needle_and_the_spoon_tab_ver_6.html ]
Interlude/Pre-Solo*
|-------------------|--------------------|-----------------------|-----------------------|
|-------------------|--------------15/---|-----------------------|-----------------------|
|-------------------|--------------------|-----------------------|--1b-------------------|
|--0~---------------|--------------------|-----------------------|-------5--3------------|
|-------------------|--------------------|--0--0-----3-3--3------|-------------5------5/-|
|-------------------|--------------------|-----------------------|-----------------------|


Solo (Rhythm)                                                                             
------------------------|--------------------------|------------------------|
------------------------|--------------------------|------------------------|
--7----7---7/5-----5/---|--10--10----7-------------|--7----7----5--5--------|
--7----7---7/5-----5/---|--10--10----7----7--2--5/-|--7----7----5--5--------|
--5----5---5/3--3--3/---|--8---8-----5----5--0--3/-|--5----5----3--3--------|
------------------------|--------------------------|------------------19/---|


                                                                              
-------------------------|
-------------------------|
-----------2----2--------|
-----------0----0--2--5--| play 4 times
-------------------0--3--|
--1--2--3----------------|


-----------------1--|-------------------|
--3--------------1--|----------------5~-|
--2--------------2--|----------------5--|
--0--------------3--|----------------5--|
--0--------------3--|----------------3--|
-----------------1--|-------------------|


                                                                     
----------------3--|--3--3--3--3--1--------|------------------------|
----------------3--|--3--3--3--3--1--------|------------------------|
----------------0--|--0--0--0--0--2--------|--7----7---7/5-----5/---|
----------------0--|--0--0--0--0--3--------|--7----7---7/5-----5/---|
-------------------|--------------3--------|--5----5---5/3--3--3/---|
----------------3--|--3--3--3--3--1--------|------------------------|



--------------------------|-------------------------|------------------------|
--------------------------|-------------------------|------------------------|
--10--10----7-------------|--7----7---7/5-----5-----|--4b--------------------|
--10--10----7----7--2--5/-|--7----7---7/5--5--5-----|-----5--3---------------|
--8---8-----5----5--0--3/-|--5----5---5/3--3--3-----|-----------5-------5/---|
--------------------------|----------------------0--|------------------------|

Verse again

Chorus again
                                                                              
Then just repeat this riff with the solo as it fades out
------------------------|--------------------------|-------------------------|---------------------------|
------------------------|--------------------------|-------------------------|-----------3---------------|
--7----7---7/5-----5/---|--10--10----7-------------|--7----7---7/5-----5-----|-----------2----2----------|
--7----7---7/5-----5/---|--10--10----7----7--2--5/-|--7----7---7/5--5--5-----|-----------0----0----------|
--5----5---5/3--3--3/---|--8---8-----5----5--0--3/-|--5----5---5/3--3--3-----|--3--3-------------0h2-2h3-|
------------------------|--------------------------|----------------------0--|--1--1--0------------------|


*Play this fill the second and third times through the first riff, and again with the Interlude
|--------------------------|-------------------------|
|--------------------------|-<12>--------------------|
|--------<7>--<7>----------|-----<12>----<7>---------|
|-<12><7>--------<7><12>---|---------<12>------------|
|--------------------------|-------------------------|
|--------------------------|-------------------------|


                                                      
|--------------------------|--------------------------|
|--------------------------|-<12>-----------------15/-|
|--------<7>--<7>----------|-----<12>----<7>----------|
|-<12><7>--------<7><12>---|---------<12>-------------|
|--------------------------|--------------------------|
|--------------------------|--------------------------|