Lynyrd Skynyrd - Needle And The Spoon Chords & Tabs

 

Needle And The Spoon Chords & Tabs

Lynyrd Skynyrd Chords & Tabs

Version: 1 Type: Tab 0 ratings
1 star 2 stars 3 stars 4 stars 5 stars
comments

Needle And The Spoon Tab

                          Lynyrd Skynyrd
                     The Needle And The Spoon

---------------------------------------|----------------------------------
----3--3-------------------------------|----3--3--------------------------
--------------0------------------------|---------------0-----4b-2---------
-0----------0---0--3-3b--0--0----------|-0-----------0---0--------4b-0----
----------3-------------------0h2-2h3--|-----------3----------------------
---------------------------------------|----------------------------------
[ Tab from: http://www.guitartabs.cc/tabs/l/lynyrd_skynyrd/needle_and_the_spoon_tab.html ]
------10--10-------7------10---------10--10-------7-------14--------10--10-------7b-5----------
---10--------10------10-----------10--------10------10-----------10--------10----------6b------
-7--------------7-------7-------7--------------7-------7-------7--------------7------------7~--
-----------------------------------------------------------------------------------------------
-----------------------------------------------------------------------------------------------
-----------------------------------------------------------------------------------------------

Verse
--------------------------------------
--------------------------------------
-7--7\5--5-5-5/10--10-10--7--7--------
-7--7\5--5-5-5/10--10-10--7--7--7/10--
-5--5\3--3-3-3/8---8--8---5--5--7/10--
--------------------------------5/8---
(With the leadguitar playing the intro, 
 without the ending of course)

Chorus
---------------------------
---------------------------
-7----7-10----10-5----5----
-7----7-10----10-5----5-5--
-5----5-8-----8--3----3-5--
------------------------3--


/metal_up_your_ass@2di4.com
Comments