Lynyrd Skynyrd - I Need You Chords & Tabs

 

I Need You Chords & Tabs

Lynyrd Skynyrd Chords & Tabs

Version: 1 Type: Tab 0 ratings
1 star 2 stars 3 stars 4 stars 5 stars
comments

I Need You Tab

Key: B=Bend            By: Garreth Wippel
     R=Return
     P=Pull Off
     H=Hammer On
     /=Slide
    (9)=Keep Brnd While Plucking

---------------5---------------------8b-8-5------------------8-4/5-3h5-3p0--|
-----------------------------------------------------------8----------------|
-------5-7br-5----7b(hold)--7br-5-7----------7br-------5-7------------------|
--7--7-------------------------------------------7-5-7----------------------|
--0-------------------------------------------------------------------------|
----------------------------------------------------------------------------|
[ Tab from: http://www.guitartabs.cc/tabs/l/lynyrd_skynyrd/i_need_you_tab.html ]
---------------------------------------------------------9b-(9)-(9)-(9)-9r---|
--3p1-3-1/3-3-3-3-5-1------13----13-----13-13---13-----8------------------10-|
----------------------2----12brb-12br-9-12-12br-12br-9-----------------------|
-----------------------------------------------------------------------------|
-----------------------------------------------------------------------------|
-----------------------------------------------------------------------------|

----------------------------------------------------------------------------|
--8-13-8-10-8-13-8h10-8p5---------------------------------------------------|
--------------------------7p5-7-7br-5-7-5--------2---2---2---2--------------|
------------------------------------------5-7---2---2---2---2---------------|
-----------------------------------------------0---0---0---0----------------|
----------------------------------------------------------------------------|
Comments