Lynyrd Skynyrd - I Know A Little Chords & Tabs

 

I Know A Little Chords & Tabs

Lynyrd Skynyrd Chords & Tabs

Version: 1 Type: Bass Tab 0 ratings
1 star 2 stars 3 stars 4 stars 5 stars
comments

I Know A Little Bass Tab

   
I Know A Little - Lynyrd Skynyrd
                     
  Intro
G|-----------------------------------------------------|
D|-----------------------------------------------------|
A|-R-5-4-R-6-5-R-5-4-R-6-5-5-4-0-R-0-R-0-R-0-R-0-2-3-4-|
E|-----------------------------------------------------|

  (x2)
G|-------------------------2-----------2---|
D|-----------------------2---4-------2---4-| 
A|-5-3-2-0-5-------0-3-4-------0-3-4-------|  
E|-----------2-3-4-------------------------|
[ Tab from: http://www.guitartabs.cc/tabs/l/lynyrd_skynyrd/i_know_a_little_btab.html ]
G|-----------------------------------------------|
D|-----------------------------------------------|
A|-7-------5-3-2-0-----------2-0-----0-0-2-0-----|
E|---4-5-6---------3-4-5-5-5-----2-0---------2-0-|
               
  
  Verse (x7)
G|---------2---| Then go to the walking bass line in the intro
D|-------2---4-| and play that. 
A|-0-3-4-------| 
E|-------------|


  Guitar Solo (x16)
G|-----------|
D|-------2-4-|
A|-0-3-4-----| Then go to the walking bass line in the intro.
E|-----------|

pause after the solo

G|-----------------------| 
D|-----------------------|
A|-----------------------| Then go back to the walking bass line in the intro.
E|-5-5-R-5-5-R-5-5-R-5\0-|

Verse three goes here. Its played just like the others
except listen for the pause before going to the walking
bassline of the intro.

  Outro
G|---------------------------------------|
D|---------------------------------------|
A|---------------------------------------|
E|-3-4-5-5-5-3-4-5-5-5-3-4-5-5-5-R-5-3-5-|

Tabbed By Frankman


Comments