Lynyrd Skynyrd - Gimme Three Steps Chords & Tabs

 

Gimme Three Steps Chords & Tabs

Lynyrd Skynyrd Chords & Tabs

Version: 3 Type: Tab 0 ratings
1 star 2 stars 3 stars 4 stars 5 stars
comments

Gimme Three Steps Tab

   
Gimme 3 Steps Intro

i realize this is a very confusing tab.  but read it, understand it, and i
promise you will play the song quite authentically.

Standard Tuning (e B G D A e)

* - bend one full step
** - bend one full step and return (return part of bend is indicated by
note/chord in parentheses following the stars)
*** - bend more than one full step
p - pull off
h - hammer on
# - vibrato until next note
/ - slide up or down and tie notes

Guitar 1 (hint of dist.)

|-------------------------------------------------------------------
|-------------------------------------------------------2-----------
|-7---7---7-7---7-------7---7-----2---2---2-2---2-------2-----------
|-7---7---7-7---7-------7---7-----2---2---2-2---2-------2-------0---
|-------9-----9-----7-9-------9-0-------4-----4-----3-4-----2-4-----
|-------------------------------------------------------------------

|--------------------------------------------------------------------
|--------------------------------------------------------------------
|-7---7---7-7---7-------7-----------------------7----7---7-7---7-----
|-7---7---7-7---7-------7---------7---7---7-----7----7---7-7---7-----
|-------9-----9-----7-9-----7-9-0-7---7---7---4-5----5---5-5---5-----
|---------------------------------5---5---5-0-2-5----5---5-5---5-----

Guitar 2 (more dist. than above guitar part)

|---------------------------------------------------------------------------------
|-10*-10*-10*-10**-(10)-7---7---7-10**---(10)-7-9-7/----5*--(5)***--5**-(5)-------
|-9 --9 --9 --9 ---(9 )-7---7---7-9 -----(9 )-7-9-7/----4---(4)-----4---(4)-------
|-----------------------------9---------------------------------------------------
|---------------------------------------------------------------------------4p0---
|---------------------------------------------------------------------------------
[ Tab from: http://www.guitartabs.cc/tabs/l/lynyrd_skynyrd/gimme_three_steps_tab_ver_3.html ]
|----------------------------------------------------------------------------------
|-----------------10**-(10)--7--10**-(10)-----10-10*---10*--(10)--7-----7--9-------
|---------------7-9 ---(9 )--7--9 ---(9 )--7--9 -9 ----9 ---(9 )--7-----7--9--7/---
|-----------7h9------------------------------------------------------9-------------
|-(0)------------------------------------------------------------------------------
|----------------------------------------------------------------------------------

|---------------------------------------------------------10----------10--------
|---------------------10-10-10/2----10**-(10)-7---7-10*-------------------------
|---------------------9 -9 -9 /2----9 ---(9 )-7---7-9 ----------10*-------------
|-----------2-----------------------------------9---------------9 ---------2/---
|-------2-4---4*-0--------------------------------------------------------------
|-0-3-4-------------------------------------------------------------------------

|-----------------------------------------------------------------------------------------
|-------8---8--------------10**---(10)**----------------7---7---7-10**--(10)-7---7-9-7/---
|--------------------------9 -----(9 )-----(9)**---(9)--7---7---7-9 ----(9 )-7---7-9-7/---
|-(2)/5---5---5-4-3-2#----------------------------------------9----------------9----------
|-----------------------------------------------------------------------------------------
|-----------------------------------------------------------------------------------------

|-------------------------------------------------------------------
|-(7)/2-----2-----2-----2-------------------------------------------
|-(7)/2-----2-----2-----2--7-----7-----7--7-----7-----7-----7--7/---
|--------------------------7-----7-----7--7-----7-----7-----7--7/---
|--------------------------5-----5-----5--5-----5-----5-----5--5/---
|-------------------------------------------------------------------

|---------------------------------------------------------------------------
|---------------------------------------------------------------------------
|-(7)/----------------------7-----7-----7--7-----7-----7-----7--7-----7-----
|-(7)/----------------------7-----7-----7--7-----7-----7-----7--7-----7-----
|-(5)/7-----9-----10-----7--5-----5-----5--5-----5-----5-----5--5-----5-----
|-----5--5-----5------5--5--------------------------------------------------

there you have it.  long intro but cool intro.  looks best if copied and pasted
into a word document, size 9 courier font.

adios once again.
Comments