Lynyrd Skynyrd - Gimme Three Steps Chords & Tabs

 

Gimme Three Steps Chords & Tabs

Lynyrd Skynyrd Chords & Tabs

Version: 2 Type: Bass Tab 0 ratings
1 star 2 stars 3 stars 4 stars 5 stars
comments

Gimme Three Steps Bass Tab

   
Gimme Three Steps
				LYNYRD SKYNYRD
				
			     TABBED BY:Law Dickerson


			              INTRO

G| rest  
|-7--7--7-7-6-7--6-7-7--6-7\-----------------------------------------------|
D|  8    
|----------------------------7-7-4---4-7-4\-0--0-------0-0-----------------|
A|measures|----------------------------------7-------------0-0-2---------------------|
E|       
|--------------------------------------------------------------------------|
[ Tab from: http://www.guitartabs.cc/tabs/l/lynyrd_skynyrd/gimme_three_steps_btab_ver_2.html ]
G|-----------------------------------------------------------------------------------|
D|-0------------0--0------------------------------2-------0-----------0--0-----------|
A|----2--0-0-2-------2-0-2-0--0---------------3-4---0-2-0----2--0-0-2-------2-0-2-0--|
E|-------------------------------2--0-0-2-0------------------------------------------|

G|-----------------------------------------------------------------------------------|
D|-----------2-----------0-----------0--0--------------------------2-2-2-2-2-2-------|
A|-------2-4---4-0--12\-----2--0-0-2------2-0-2-0------------------------------------|
E|-0-3-4------------------------------------------3-3-3-3-3-2-1-0--------------------|

G|-----------------------------------------------------------------------------------|
D|-0-----------0--0---------------------0--0-------0--0------------------------------|
A|----2--0-0-2------2-0-2-0-0--0--0-2-0------0-0-2-----------------------------------|
E|-----------------------------------------------------------------------------------|
Comments