Lynyrd Skynyrd - Free Bird Chords & Tabs

 

Free Bird Chords & Tabs

Lynyrd Skynyrd Chords & Tabs

Version: 3 Type: Tab 0 ratings
1 star 2 stars 3 stars 4 stars 5 stars
comments

Free Bird Tab

Artist: Lynyrd Skynyrd
Song: Free Bird
Album: The Very Best Of 
Tabed By: Paul
E-mail: cr05@yosemite.net


Here's the whole song but the solo. I can't take credit for this song because my guitar teacher tought me it so give credit to John Kilburn. here's all the cord's for the song.


E|-3----3---------2---3----3-3--------2-2-2-2-2-2p3--2-2-2-|
B|-3----3-----1---3---3----3-3-----1--3-3-3-3-3-3----3-3-3-|
G|-0----0---2-0---2---0----0-0--2--0--2-2-2-2-2-2----2-2-2-|
D|-0----2---3-2-------0----2-2--3--2-----------------------|
A|------2---3-3------------2-2--3--3-----------------------|
E|-3-2------1---------3-2-------1--------------------------|
[ Tab from: http://www.guitartabs.cc/tabs/l/lynyrd_skynyrd/free_bird_tab_ver_3.html ]
 HERE'S WHERE THE ORGAN STOPS PLAYING AND IF YOU LISIN YOU CAN HERE THESE CORD'S IN THE BACKGROUND.
E|---3-3----3-3-3-----3----------------------2-2-2-2-2-2P3-|
B|---3-3----3-3-3-----3-------------1-1-1----3-3-3-3-3-3-3-|
G|---0-0----0-0-0-----0---2-2-2-----0-0-0----2-2-2-2-2-2-2-|
D|---0-0----2-2-2-----2---3-3-3-----2-2-3--0---------------|
A|----------2-2-2-----2---3-3-3--3--3-3-2------------------|
E|-3-3-2--0--------00---1-1-1-1----------------------------|

 THIS IS WHEN IT START'S THE SOLO IN THE BACKGROUND YOU CAN HERE THESE CORD'S.
E|---------------------------------------------------------|
B|---------------------------------------------------------|
G|-4-4-4-4-4-4-7-7-7-7-7-7-9--9--9--9--9--9--9--9--9-------|
D|-5-5-5-5-5-5-8-8-8-8-8-8-10-10-10-10-10-10-10-10-10------|
A|-5-5-5-5-5-5-8-8-8-8-8-8-10-10-10-10-10-10-10-10-10------|
E|-3-3-3-3-3-3-6-6-6-6-6-6-8--8--8--8--8--8--8--8--8-------|

 THIS IS LATER ON IN THE SONG WHEN THEY START PLAYING THE GUITAR REALLY REALLY FAST.
E|----------------------------|
B|----------------------------|
G|-4-4----7-7----9--9---------|
D|-5-5----8-8----10-10--------|
A|-5-5----8-8----10-10--------|
E|-3-3----6-6----8--8---------|


Well there's all the cord's I noo in the song. my E-mail is cr05@yosemite.net
Comments