Lynyrd Skynyrd - Free Bird Chords & Tabs

 

Free Bird Chords & Tabs

Lynyrd Skynyrd Chords & Tabs

Version: 2 Type: Tab 0 ratings
1 star 2 stars 3 stars 4 stars 5 stars
comments

Free Bird Tab

   
Lynyrd Skynyrd
FREE BIRD

p=pull off
h=hammer


|-----------------------------------------------------------------------|
|-----------------------------------------------------------------------|
|-----------------------------------------------------------------------|
|----------0-------0-------0-------0-------2-------2-----2-----2-----2--|
|--------2-----2---------0-----0---------2-----2-----2-----2-----2------|
|--0-2-3-----3---3---3-2-----2---2---2-0-----0---0-----0-----0-----0----|
[ Tab from: http://www.guitartabs.cc/tabs/l/lynyrd_skynyrd/free_bird_tab_ver_2.html ]
|---------------------------------------------------------|
|----------------------------------------3-------3--------|
|----------------------0---------0-0h2-----0h2-----0h2----|
|------3-------3-----2---2-3p2---------0-------0-------0--|
|----3---3-3-3---0-3-----------3--------------------------|
|--1------------------------------------------------------|

that repeats a few times(listen to song to see how many times)... and i don't know any of the solos... if you want to contact me... e-mail/AIM at SacredDeath316@aol.com...
God Bless


Comments