Lynyrd Skynyrd - Free Bird Chords & Tabs

 

Free Bird Chords & Tabs

Lynyrd Skynyrd Chords & Tabs

Version: 3 Type: Bass Tab 0 ratings
1 star 2 stars 3 stars 4 stars 5 stars
comments

Free Bird Bass Tab

Title: FreeBird (live)
Artist: Lynyrd SKynyrd

ok i'm not going to take all the credit for this..im just writing this down. 
Mel Oberhaus takes the credit for this.


Intro/Verse

x]-------------------------------------7-7-----7-7---
x]--5-5-4-4----2-2-2-2--3-3-----------7---7---7---7--
x]--------------2-2-2----3----3-3----5-----5-5-------
x]-----------------------------3---------------------


Chorus

x]----------------7-7-----7-7----
x]---3-3---------7---7---7---7---
x]----3--3-3----5-----5-5--------
x]--------3----------------------


Solo
[ Tab from: http://www.guitartabs.cc/tabs/l/lynyrd_skynyrd/free_bird_btab_ver_3.html ]
x]--------------------------------------------------------------
x]--------------------------------------------------------------
x]----------------------1-1-1-1-1-1-1-1-1-1--3-3-3-3-3-3-3-3-3-3
x]----3-3-3-3-3-3-3-3-3-----------------------------------------

Optional Solo riff

x]--------------------------------------------------------------------------
x]--------------------------------------------------------------------------
x]------------------------1-1-1-1-1-1-1-1-1-1-3-3-3-3-3-3-3-3---------------
x]----3-3-3-3-3-3-3-3-3-3--------------------------------------1-2-3--------

^^^^^
then you just repeat the regular solo...but you can throw in the riff every
so often. it makes it sound better.


any questions, comments, or corrections, 
please email me at drummerdude713@yahoo.com

Tabbed by: Mel Oberhaus
Written by: Taylor Davalos
Comments