Lynyrd Skynyrd - Dont Ask Me No Questions Chords & Tabs

 

Dont Ask Me No Questions Chords & Tabs

Lynyrd Skynyrd Chords & Tabs

Version: 1 Type: Tab 3 ratings
1 star 2 stars 3 stars 4 stars 5 stars
comments

Dont Ask Me No Questions Tab

e------------------------------------------------------------
b------------------------------------------------------------
g-------------------------------7/4-----------5---5---3------
d---------------5---------------7/4-----------5---5---3------
a---------------5---0---4---5---5/2---0---2---3---3---1------
e---0---2---3---3--------------------------------------------
[ Tab from: http://www.guitartabs.cc/tabs/l/lynyrd_skynyrd/dont_ask_me_no_questions_tab.html ]
e------------------------------------------------------------
b------------------------------------------------------------
g------------------------------------------------------------
d---5---5---5------------------------------------------------
a---5---5---5------------------------------------------------
e---3---3---3------------------------------------------------

thats the quality intro to this song. i could never find it so
i tabbed it myself. the rest of the song is c,d,gyou people can find
the rest. theres nothing better than skynyrd
Comments