Lynyrd Skynyrd - Dont Ask Me No Questions Chords & Tabs

 

Dont Ask Me No Questions Chords & Tabs

Lynyrd Skynyrd Chords & Tabs

Version: 1 Type: Bass Tab 0 ratings
1 star 2 stars 3 stars 4 stars 5 stars
comments

Dont Ask Me No Questions Bass Tab

Artist: Lynryd Skynryd
Title: Don't Ask Me No Questions
Tabbed by: Chris Robison
E-mail:  CCTR100@aol.com

G------------
D------------
A------------
E---0-2-3-3--

G------------
D------------
A---0-4-5-5--
E------------
[ Tab from: http://www.guitartabs.cc/tabs/l/lynyrd_skynyrd/dont_ask_me_no_questions_btab.html ]
G--------------------------------
D--------------------------------
A---0-2-3--3-3-3-3---1*----------
E-------------------------3---3--

The A# note that is starred is a BENT note.  You must bend this to get 
the proper sound.   This is only the bass line during one verse, however 
I am only tabbing from memory.  If you have the record, pretty much the 
entire song should be played within the G Major scale and it shouldn't 
be too hard to figure the rest out.

Comments