Lynyrd Skynyrd - Call Me The Breeze Chords & Tabs

 

Lynyrd Skynyrd Chords & Tabs

Version: 1 Type: Tab 4 ratings
1 star 2 stars 3 stars 4 stars 5 stars
comments

Call Me The Breeze Tab

   
Song : Call me the breeze
Artist : Lynyrd Skynyrd
Album : Second Helping




h   - hammer on
p   - pull off
b   - bend string up
bb  - 1 1/2 tone bend
H   - hold bend
r   - release bend
/   - slides
~   - vibrato
x   - play 'note' with heavy damping
(*) - harmonics



Intro



Guitar 1 (repeat)

E----------------------------------------------------------
B------------------2--2------5--2--------------2-----------
G------------------2--2------5--2--------------2-----------
D----------------------------------------------2-----------
A----/15/------0---------0----------0-3p0------0-----------
E------------------------------------------3---------------

E----------------------------------------------------------
B---2--2----5~---------------------------------------------
G---2--2----5~---------------------------------------------
D----------------------------------------------------------
A--------0-------------------------------------------------
E----------------------------------------------------------


Guitar 2


E--------------5~----------7b---5--7---5-------------------
B--------5--7----------------------------------------------
G----/6----------------------------------------------------
D----------------------------------------------------------
A----------------------------------------------------------
E----------------------------------------------------------

E-----------------------------------------------12---------
B--------------10~--10----12b-10-----12b-10-12b-----12brb--
G---------9-11---------11----------------------------------
D----/11---------------------------------------------------
A----------------------------------------------------------
E----------------------------------------------------------

E----------------------------------------------------------
B--------------10~--10----12b-10-----10-12b-12-10----10-12-
G---------9-11---------11-------------------------11-------
D----/11---------------------------------------------------
A----------------------------------------------------------
E----------------------------------------------------------


E----------------------------------------------------------
B---10-----10-12b------------------------------------------
G------11--------------------------------------------------
D----------------------------------------------------------
A----------------------------------------------------------
E----------------------------------------------------------



Verse

It's a blues progression

A D A E D A



E----------------------------------------------------------
B-----2---------------------------------------2------------
G-----2---------------------------------------2------------
D-----2-------------------7----------6-5-4----2------------
A-----0-------------------5----------4-3-2----0------------
E----------------------------------------------------------


E----------------------------------------------------------
B-------------------------------2--------------------------
G-------------------------------2--------------------------
D-----2----------7--------------2--------------------------
A-----2----------5--------------0--------------------------
E-----0----------------------------------------------------


That's not really good... I know...

Here's what's cool...


(0 :55)

E----------------------------------------------------------
B----------------------------------------------------------
G------9~------5----9p8p7/5-------7-5-5--------------------
D-----10~--------------------7-7---------7-5---------------
A--------------------------------------------7-7/5-3~------
E----------------------------------------------------------

E------------------------------10b-10-8-9------------------
B------8-10-10-8-10-10~--------------------10-8-10-10~-----
G----------------------------------------------------------
D----------------------------------------------------------
A----------------------------------------------------------
E----------------------------------------------------------

E----------------------------------------------------------
B-----8--------8-------------------------------------------
G--------9/7/9---9/7-5-7-5-9/7/9~--------------------------
D----------------------------------------------------------
A----------------------------------------------------------
E----------------------------------------------------------


(1 :10)

E----------------------------------------------------------
B----------------------------------------------------------
G---0-2-0-5-0-4-0-2~---------------------------------------
D----------------------------------------------------------
A----------------------------------------------------------
E----------------------------------------------------------

E-----------------8h9----8h9h10p9p8-----8-9-10-8-9-10b-10b-
B---8-10-10-8-10------10-----------8h10--------------------
G----------------------------------------------------------
D----------------------------------------------------------
A----------------------------------------------------------
E----------------------------------------------------------

Solo (1 :20)


E----9-9-9-9-9-9-9-9-9-9-9-9-9-9-9-9-9-9-9-9-9-9-9-9-9-9---
B----8-8-8-8-8-8-8-8-8-8-8-8-8-8-8-8-8-8-8-8-8-8-8-8-8-8---
G----9-9-9-9-9-9-9-9-9-9-9-9-9-9-9-9-9-9-9-9-9-9-9-9-9-9---
D----------------------------------------------------------
A----------------------------------------------------------
E----------------------------------------------------------


E----8-8-8-8-8-8-8-8-8-8-8-8-8-8-8-8-8-8-8-8-8-8-8-8-8-8---
B----7-7-7-7-7-7-7-7-7-7-7-7-7-7-7-7-7-7-7-7-7-7-7-7-7-7---
G----8-8-8-8-8-8-8-8-8-8-8-8-8-8-8-8-8-8-8-8-8-8-8-8-8-8---
D----------------------------------------------------------
A----------------------------------------------------------
E----------------------------------------------------------

E--8/9-9-9---8/9-9-9---8/9-9-9-----------------------------
B--7/8-8-8---7/8-8-8---7/8-8-8-----------------------------
G--8/9-9-9---8/9-9-9---8/9-9-9-----------------------------
D----------------------------------------------------------
A----------------------------------------------------------
E----------------------------------------------------------

E--8/9-9-9---8/9-9-9---8/9-9-9-----------------------------
B--7/8-8-8---7/8-8-8---7/8-8-8-----------------------------
G--8/9-9-9---8/9-9-9---8/9-9-9-----------------------------
D----------------------------------------------------------
A----------------------------------------------------------
E----------------------------------------------------------





E--------5------8-10brp8-10-8~---5-7brp5-----5-------------
B------5---/10---------------------------8-5---8-----------
G---/7-------------------------------------------9-8-7-----
D----------------------------------------------------------
A----------------------------------------------------------
E----------------------------------------------------------


E----------------------------------------------------------
B----------------5~---------5~-----------5~---------5~-----
G-----5-6~-------5~---------5~-----------5~---------5~-----
D----------7-5-7-----7-5-7------7-5-7-----7-5-7------------
A----------------------------------------------------------
E----------------------------------------------------------

                             Try to pick every note...

E----------------------------------------------------------
B----------5~----------------------------------------------
G----------5~----------------------------------------------
D----7-5-7---7-5-7-----------------------------------------
A-------------------7-5-3----7p5/3-5/7-7p5/3-5/7-7p5/3-5/7-
E----------------------------------------------------------

E----------------------------------------------------------
B----------------------------------------------------------
G----------------------------------------------------------
D----------------------------------------------------------
A---7p5/3-5/7---7p5/3-5/7-----7p5/3---5/7---7p5/3-5/7------
E----------------------------------------------------------
[ Tab from: http://www.guitartabs.cc/tabs/l/lynyrd_skynyrd/call_me_the_breeze_tab.html ]
E----------------------------------------------------------
B----------------------------------------------------------
G---------------------------------------------------5h6----
D------------------------------5-7---5---4/7~---5-7--------
A----7p5/3-5-3-----------3-5/7-----7---7-------------------
E--------------5-3-5~--------------------------------------

E----------5~--5-7brp5-7-5-------------------12-----12-----
B-----5-7-----------------------------10-12b----12b--------
G----------------------------------11----------------------
D----------------------------------------------------------
A----------------------------------------------------------
E----------------------------------------------------------

E--------12-----12-----12-----12-----12-----12-----12------
B----12b----12b----12b----12b----12b----12b----12b---------
G----------------------------------------------------------
D----------------------------------------------------------
A----------------------------------------------------------
E----------------------------------------------------------

E--------12-----12-----12-----12-----12-----12-----12------
B----12b----12b----12b----12b----12b----12b----12b---------
G----------------------------------------------------------
D----------------------------------------------------------
A----------------------------------------------------------
E----------------------------------------------------------

E--------12-----12-----12-----12-----12-----12-----12------
B----12b----12b----12b----12b----12b----12b----12b---------
G----------------------------------------------------------
D----------------------------------------------------------
A----------------------------------------------------------
E----------------------------------------------------------

E-------12-------------------12------12b-------------------
B-------12b-12b-12--10-------12b----------12b-12-10--------
G-----------------------11---------------------------------
D----------------------------------------------------------
A----------------------------------------------------------
E----------------------------------------------------------

E----------------------------------------------------------
B--------10----12brp10-12--10--------------------5~--------
G-----11------------------------11/9-------------5~--------
D-------------------------------------11/9--7-9----7-5-7~--
A----------------------------------------------------------
E----------------------------------------------------------

E--------12-12------12-12-----12-12-----12-12-----12-12----
B-----15b-------15b-------15b-------15b-------15b----------
G----------------------------------------------------------
D----------------------------------------------------------
A----------------------------------------------------------
E----------------------------------------------------------

E--------12-17-----12-17-----12-17-----12-17---------------
B----15b-------15b-------15b-------15b---------------------
G----------------------------------------------------------
D----------------------------------------------------------
A----------------------------------------------------------
E----------------------------------------------------------

E------7brp5-----5-----------------------------------------
B------------7-5---7-5-------------------------------------
G----------------------8/7--5-6------------------2-4brp2---
D-------------------------------7-5----------2-4-----------
A------------------------------------7/5-3b----------------
E----------------------------------------------------------

E----------------------------------------------------------
B-----------2~---------------------------------------------
G------4----2~---------------------------------------------
D---4----4-------------------------------------------------
A----------------------------------------------------------
E----------------------------------------------------------


Then :

(2 :26)

E----------------------------------------------------------
B--------------------------3b*----------5b*----------------
G---------2-4b*--------2-------------2--------4brp2--4-2~--
D-----2-4----------2-4-----------2-4-----------------------
A----------------------------------------------------------
E----------------------------------------------------------


E------8h10---8--------------------------------------------
B----------------10-8--------------------------------------
G---------------------9------------------------------------
D----------------------------------------------------------
A----------------------------------------------------------
E----------------------------------------------------------


E----------------------------------------------------------
B---------8-10b---------8-12b-12-10-12-10-----12-10~-------
G-----7h9-----------7h9-------------------11---------------
D----------------------------------------------------------
A----------------------------------------------------------
E----------------------------------------------------------


(2 :47)

E---------15-----15-----15-----15--------------------12----
B-----15b----15b----15b----15b----15rp13-------13-15-------
G----------------------------------------14----------------
D----------------------------------------------------------
A----------------------------------------------------------
E----------------------------------------------------------


E------12-14---15b-15b-------------------------------------
B---15-----------------------------------------------------
G----------------------------------------------------------
D----------------------------------------------------------
A----------------------------------------------------------
E----------------------------------------------------------


After piano pass.


(4 :06)                              Tapping

E-------8b-8-5-8-5---5-5-----------7b-9h12p9h12p9h12p9h12p-
B------------------8---------------------------------------
G----------------------------------------------------------
D----------------------------------------------------------
A----------------------------------------------------------
E----------------------------------------------------------

E-9h12p9h12p9h12p9h12p9h12p9h12p9h12p9h12p9h12p9h12p9h12p9-
B----------------------------------------------------------
G----------------------------------------------------------
D----------------------------------------------------------
A----------------------------------------------------------
E----------------------------------------------------------

E------7brp5---5-------------------------5~----------------
B------------8-----8-5----5~------5-6-7--------------------
G----------------------7-----------------------------------
D----------------------------------------------------------
A----------------------------------------------------------
E----------------------------------------------------------



E----/5----------------/5----------------/5----------------
B----/5--5-7-5h6-------/5--5-7-5h6-------/5-5-7--5h6-------
G--------5-7-5-------------5-7-5------------5-7--5---------
D-----------------7----------------7-----------------7-----
A----------------------------------------------------------
E----------------------------------------------------------


E----------------------------------------------------------
B-------7--5h6---------------------------------------------
G-------7--5-----------------------------------------------
D----7-----------------------------------------------------
A----------------------------------------------------------
E----------------------------------------------------------


E--------------------5-------------------------------------
B-------------5h6h7-----7~--------5--7-----------5---------
G------4h5h6-----------------5h6-------6---5h6----6-5/4----
D-------------------------------------------------------7~-
A----------------------------------------------------------
E----------------------------------------------------------


End (4 :50)


E----------------------------------------------------------
B----------------------------------------------------------
G---2-2----6-6--7-7--8-8---9-------------------------------
D---2-2----6-6--7-7--8-8---9-------------------------------
A---0-0----4-4--5-5--6-6---7-------------------------------
E----------------------------------------------------------


E----------------------------------------------------------
B---/6~-----5~---------------------------------------------
G---/7~-----6~---------------------------------------------
D---/8~-----7~---------------------------------------------
A----------------------------------------------------------
E----------------------------------------------------------

Comments