Lyndsay Diaries - Wishing Well Chords & Tabs

 

Wishing Well Chords & Tabs

Lyndsay Diaries Chords & Tabs

Version: 1 Type: Tab 0 ratings
1 star 2 stars 3 stars 4 stars 5 stars
comments

Wishing Well Tab

-------------------------------------------------------
The Lyndsay Diaries - Wishing Well
from "Remember the Memories"
-------------------------------------------------------
tabbed by Matt LeFevers (www.myspace.com/MattLeFevers)

Intro:

High Part (played with all natural harmonics)
E---------------------------------------|
B---------------------------------------|
G---------------------------------------|
D--7------12~----------------------12~--|
A----7----------------------12--7-------|
E---------------------------------------|

and underneath: (this is also the verse riff)
E----------0-------------0------------------------------|
B-----3-------------3-----------------------------------|
G-------2-------------2--------------0-------------0----|
D----------------------------------4---4---------4---4--|
A--2-------------2---------------5-------------5--------|
E------------------------------3-------------3----------|

"Stand atop the wishing well..." - "...but you remain the same..."

Prechorus (strummed):
E-------0---------------0--|
B-------3---------------3--|
G-------2---------------0--|
D-------0---------------0--|
A-------2---------------2--|
E-----------------------3--|
 "and your love still remains..."
[ Tab from: http://www.guitartabs.cc/tabs/l/lyndsay_diaries/wishing_well_tab.html ]
Chorus:
E--0--------------------0------------------------------0--|
B--3--------------------3------------------------------3--|
G--2--------------------0------------------------------2--|
D--2--------------------0------------------------------0--|
A--0--------------------2------------------------------2--|
E-----------------------3------------------------------0--|
  "I make a wish on a prayer as a tear falls down the well..."

E---------------------0-----------------------|
B---------------------3-----------------------|
G---------------------0-----------------------|
D---------------------0-----------------------|
A---------------------2-----------------------|
E---------------------3-----------------------|
  "I never hear the fall / it's as if the wish was too tall..."

Verse 2 - intro riff again
Prechorus - "release me from this tongue-twisting pain..."
Chorus - "I made a wish on a prayer..."

Outro:
E--0-----------------------0--------------------------------0--|
B--3-----------------------3--------------------------------3--|
G--2-----------------------2--------------------------------0--|
D--0-----------------------0--------------------------------0--|
A--------------------------2--------------------------------2--|
E-----------------------------------------------------------3--|
   "I believed when they moved their lips/I didn't take my eyes off theirs"

Ends on:
E--0--|
B--3--|
G--2--|
D--0--|
A--2--|
E-----|
Comments