Lyndsay Diaries - Mixtapes And Memories Chords & Tabs

 

Mixtapes And Memories Chords & Tabs

Lyndsay Diaries Chords & Tabs

Version: 1 Type: Tab 0 ratings
1 star 2 stars 3 stars 4 stars 5 stars
comments

Mixtapes And Memories Tab

Lyndsay Diaries - Mixtapes And Memories
By:Andrew Mcshan(Guitarguyx182@aol.com)

capo on second fret

Intro/Verse
e|-----------3-3-3-0--------|
B|-1-1-1-0-1-3-3-3-0--------|
G|-----------0-0-0-0--------|
D|-2-2-2-----0-0-0-0--------|
A|-3-3-3-----2-2-2-5-3------|
E|-----------3-3-3-3-1------|

Chorus
e|-3--0-0--------------|
B|-3--0-0--------------|
G|-0--0-0--------------|
D|-0--0-0--------------|
A|-2--7-3--------------|
E|-3--5-1--------------|
[ Tab from: http://www.guitartabs.cc/tabs/l/lyndsay_diaries/mixtapes_and_memories_tab.html ]
I promise this won't be another song about being alone but all I feel is regret
and I can't find the nerve to pick up the telephone.
I was thinking about how it drives me crazy just to feel your hand in mine,
and how simple that is
and I've thought about saying no to hope
but I have this funny habit of putting pictures up on the wall of you and me.
I know that priorities never understand reality
and time never lends itself to those who are waiting on love.
But it is overdue that we should share this night and Grace,
your smile is the only thing that keeps me breathing.
The hours pass by like minutes when I'm with you.
The hours pass like minutes in the rain.
So lets stand here in the rain forever.
Comments