Lyndsay Diaries - Emergency Chords & Tabs

 

Emergency Chords & Tabs

Lyndsay Diaries Chords & Tabs

Version: 1 Type: Tab 0 ratings
1 star 2 stars 3 stars 4 stars 5 stars
comments

Emergency Tab

   
LYNDSAY DIARIES - Emergency
from the "Midwestern" EP
Tabbed by Pete Crosby (bahamut_zero85@hotmail.com)

A pretty simple song, but I thought it might be worth tabbing anyway.

STANDARD TUNING (EADGBe)

MAIN RIFF:
----------

e||--------------------------------------------------|
B||--------------------------------------------------|
G||--------0-----------0-----------0-----2--0--------|
D||-----4-----4-----4-----0-----------0--------4--0--|
A||--3-----------3--------------2--------------------|
E||--------------------------0-----------------------|


INTRO:
------

MAIN RIFF (x2)


VERSE:
------

MAIN RIFF (x6)

On last time through play this instead:
 
e||--------------------------|
B||--------------------------|
G||--------0-----2--0--2--0--|
D||-----------0--------------|
A||-----2--------------------|
E||--0-----------------------|


CHORUS:
-------

G  Em  D  C (x3)

Play each chord eight times, using only downstrokes while a second guitar plays this:

[ Tab from: http://www.guitartabs.cc/tabs/l/lyndsay_diaries/emergency_tab.html ]
e||--------------------------------------------------|
B||--------------------------------------------------|
G||--------0-----------0-----------0-----------0-----|
D||--------------------------------------------------|
A||-----2-----2-----2-----2-----2-----2-----2-----2--|
E||--3-----------3-----------0-----------0-----------|



e||--------------------------------------------------|
B||--------3-----------3-----------------------------|
G||-----2-----2-----2-----2--------0-----0-----0-----|
D||--0-----------0--------------2-----2-----2-----2--|
A||--------------------------3-----------------------|
E||--------------------------------------------------|


Play verse and chorus once more each and end on a C.


LYRICS:
-------

I always tell myself to be patient, 
But my left hand shakes 
Against your new couch. 
Control of the situation 
Fell through my fingers, 
I heard her say 
You can't keep living as if your dying 
Well I'm dying.

And now what an awkward way
To spend the holiday 
In such a deviant 
Way to behave,
It's amazing how quiet this house is 
When the world outside 
Is celebrating their New Years 
And their new fears. 

Your diction is okay, 
'Cause its medically approved,
And he night is expired.
Lay me down
To sleep, but one more thing 
Can you say "diction".
Well I can admit my guilt. 
Emergency, oh, emergency.
Let's whisper, goodnight.

And now what an awkward way
To spend the holiday 
In such a deviant 
Way to behave,
It's amazing how quiet this house is 
When the world outside 
Is celebrating their New Years 
And their new fears.
Comments