Lynch Stephen - What If That Guy From The Smashing Pumpkins Lost His Car Keys Chords & Tabs

 

What If That Guy From The Smashing Pumpkins Lost His Car Keys Chords & Tabs

Lynch Stephen Chords & Tabs

Version: 1 Type: Tab 0 ratings
1 star 2 stars 3 stars 4 stars 5 stars
comments

What If That Guy From The Smashing Pumpkins Lost His Car Keys Tab

   
Artist: Stephen Lynch
Song: “What if That Guy from the Smashing Pumpkins Lost His Car Keys?”
Album: Superhero (2002)
Capo: NO

Song:
C                                  Fmaj7      
--------0-------0-------0-------0--------0-------0--------0--------0-
------1-------1-------1-------1--------1-------1--------1--------1---
----0-------0-------0-------0--------2-------2--------2--------2-----
--2-------2-------2-------2--------3-------3--------3--------3-------
---------------------------------------------------------------------
---------------------------------------------------------------------

C                                  Fmaj7      
--------0-------0-------0-------0--------0-------0--------0--------0-
------1-------1-------1-------1--------1-------1--------1--------1---
----0-------0-------0-------0--------2-------2--------2--------2-----
--2-------2-------2-------2--------3-------3--------3--------3-------
---------------------------------------------------------------------
---------------------------------------------------------------------
Where the f*ck are my car keys?
[ Tab from: http://www.guitartabs.cc/tabs/l/lynch_stephen/what_if_that_guy_from_the_smashing_pumpkins_lost_his_car_keys_tab.html ]
    Fmaj7                             C
--------0-------0-------0-------0-------0-------0-------0-------0--
------1-------1-------1-------1-------1-------1-------1-------1----
----2-------2-------2-------2-------0-------0-------0-------0------
--3-------3-------3-------3-------2-------2-------2-------2--------
-------------------------------------------------------------------
-------------------------------------------------------------------
They where right here in my hand.
                       
C                                  Fmaj7      
--------0-------0-------0-------0--------0-------0--------0--------0-
------1-------1-------1-------1--------1-------1--------1--------1---
----0-------0-------0-------0--------2-------2--------2--------2-----
--2-------2-------2-------2--------3-------3--------3--------3-------
---------------------------------------------------------------------
---------------------------------------------------------------------
I had them about a second ago.

C                                  Fmaj7      
--------0-------0-------0-------0--------0-------0--------0--------0-
------1-------1-------1-------1--------1-------1--------1--------1---
----0-------0-------0-------0--------2-------2--------2--------2-----
--2-------2-------2-------2--------3-------3--------3--------3-------
---------------------------------------------------------------------
---------------------------------------------------------------------
Did I leave them here in the kitchen?
 
    Fmaj7                             C
--------0-------0-------0-------0-------0-------0-------0-------0--
------1-------1-------1-------1-------1-------1-------1-------1----
----2-------2-------2-------2-------0-------0-------0-------0------
--3-------3-------3-------3-------2-------2-------2-------2--------
-------------------------------------------------------------------
-------------------------------------------------------------------
Or under the cusions of the couch?

C                                  Fmaj7      
--------0-------0-------0-------0--------0-------0--------0--------0-
------1-------1-------1-------1--------1-------1--------1--------1---
----0-------0-------0-------0--------2-------2--------2--------2-----
--2-------2-------2-------2--------3-------3--------3--------3-------
---------------------------------------------------------------------
---------------------------------------------------------------------
I cant find them anywhere anywhere- oh, here they are.

Chords:
C:     X32010
Fmaj7: XX3210
Comments