Lynch Stephen - Tall Glass O Water Chords & Tabs

 

Tall Glass O Water Chords & Tabs

Lynch Stephen Chords & Tabs

Version: 1 Type: Tab 0 ratings
1 star 2 stars 3 stars 4 stars 5 stars
comments

Tall Glass O Water Tab

   
Artist : Stephen Lynch
Song: “Tall Glass O’ Water”
Album: A Little Bit Special (2000)
Capo: NO

Song:
-------------
-------------
--2----------
--2----------
--0---------- 
-----0-2-4---
Yeeeeeeeeeeeeeeeeeeee-haaaw!


 A        D        A         E
----------------------------------------
-------------3---3----------------------
----2---2----2---2----2---------1---1---
----2---2--0----------2--2------2---2---
--0------------0----0------4--2---2----- 
------0---------------------------------
She's a tall glass o' water; she’s a sip of lemonade.

  A        D        A         
----------------------------------------
-------------3---3----------------------
----2---2----2---2----2---2---2---------
----2---2--0----------2---2---2---------
--0------------0----0-------0----0------ 
------0-----------------0----------4----
She’s a cup of hot Darjeeling tea; she’s a cool tang in the shade.
[ Tab from: http://www.guitartabs.cc/tabs/l/lynch_stephen/tall_glass_o_water_tab.html ]
  F#       E        D        A
----------------------------------------
----------------------3---3-------------
--------4-------------2---2----2--------
----4---4----2---2--0----------2--------
----4-4------2---2------0----0----0-----
--2--------0---0--------------------4---
She's an oatmeal cookie; she’s a crumb of melba toast.

  F#       E        D    A
----------------------2----0------------
----------------------3----2------------
--------4-------------2----2------------
----4---4----2---2--0----2--------------
----4-4------2---2------------0---------
--2--------0---0----------------0-2-4---
She's the cream in an Oreo-that’s the part I like the most.

    A        D        A         E
----------------------------------------
-------------3---3----------------------
----2---2----2---2----2---------1---1---
----2---2--0----------2--2------2---2---
--0------------0----0------4--2---2----- 
------0---------------------------------
She’s a handful of beernuts; she’s a cold bottle of Schlitz.

  A        D        A         
----------------------------------------
-------------3---3----------------------
----2---2----2---2----2---2-------------
----2---2--0----------2---2--2----------
--0------------0----0--------0---------- 
------0-----------------0---------------
She’s that little tub of Pepto-Bismol, whenever I get the...
How you doing, all right!

Chords:
A:  X02220
D:  XX0232
E:  022100
F#: 2444XX
Comments