Lynch Stephen - Special Olympics Chords & Tabs

 

Special Olympics Chords & Tabs

Lynch Stephen Chords & Tabs

Version: 1 Type: Tab 0 ratings
1 star 2 stars 3 stars 4 stars 5 stars
comments

Special Olympics Tab

   
Artist: Stephen Lynch
Song: “Special Olympics”
Album: N/A

Song:
--------2-----------2------------2-----------2------
------3---3-------3---3--------3---3-------3----3---
----2-------2---2-------2---2--------2---2--------2-
--0-----------0-----------0------------0------------
----------------------------------------------------
----------------------------------------------------
  Watch them run, watch them fall,
  Watch them try to catch a ball.

--------3-----------3-----------0-----------0-------
------3---3-------3---3-------3---3-----------2-----
----0-------0---0-------0---0-------0-----2-----2---
----------------------------------------2-----------
--------------------------------------0-------------
--3-----------2-----------0-------------------------
  Olympics, Special...

--------2-----------2------------2-----------2------
------3---3-------3---3--------3---3-------3----3---
----2-------2---2-------2---2--------2---2--------2-
--0-----------0-----------0------------0------------
----------------------------------------------------
----------------------------------------------------
  ...Olympics.

--------2-----------2------------2-----------2------
------3---3-------3---3--------3---3-------3----3---
----2-------2---2-------2---2--------2---2--------2-
--0-----------0-----------0------------0------------
----------------------------------------------------
----------------------------------------------------
  Watch them laugh, watch them drool.
  Watch them fall into the pool-that’s diving!

--------0-----------0-----------0-----------0-------
------3---3-------3---3-------3---3-----------2-----
----0-------0---0-------0---0-------0-----2-----2---
----------------------------------------2-----------
--------------------------------------0-------------
--3-----------2-----------0-------------------------
  At the Special...

--------2-----------2------------2-----------2------
------3---3-------3---3--------3---3-------3----3---
----2-------2---2-------2---2--------2---2--------2-
--0-----------0-----------0------------0------------
----------------------------------------------------
----------------------------------------------------
  ...Olympics.



--------3-----------3-----------0-----------0-------
------3---3-------3---3-----------2-----------2-----
----0-------0---0-------0-----2-----2-----2-----2---
----------------------------2-----------2-----------
--------------------------0-----------0-------------
--3-----------3-------------------------------------
  And I know full well...

--------2-----------2-----------2-----------2-------
------3---3-------3---3-------3---3-------3---3-----
----2-------2---2-------2---2-------2---2-------2---
--0-------------------------------------------------
--------------4-----------2-----------0-------------
----------------------------------------------------
  ...that I will burn in hell.

--------3-----------3-----------3-----------0-------
------3---3-------3---3-------3---3-------3---3-----
----0-------0---0-------0---0-------0---0-------0---
----------------------------------------------------
----------------------------------------------------
--3-----------3-----------3-----------3-------------
But those guys playing wheelchair basketball have
   gotta be about the funniest friggin' thing I’ve
   ever seen in my... 

--------0-----------0-----0-------------------------
----------2-----------2---2-------------------------
------2-----2-----2-----2-2-------------------------		
----2-----------2---------2-------------------------
--0-----------0-----------0-------------------------
--------------------------X-------------------------
  ...life.
[ Tab from: http://www.guitartabs.cc/tabs/l/lynch_stephen/special_olympics_tab.html ]
--------2-----------2------------2-----------2------
------3---3-------3---3--------3---3-------3----3---
----2-------2---2-------2---2--------2---2--------2-
--0-----------0-----------0------------0------------
----------------------------------------------------
----------------------------------------------------
  At the Special Olympics.

--------2-----------2------------2-----------2------
------3---3-------3---3--------3---3-------3----3---
----2-------2---2-------2---2--------2---2--------2-
--0-----------0-----------0------------0------------
----------------------------------------------------
----------------------------------------------------
  Kid with Down's won the race, 
  even though he stood in place.

--------3-----------3-----------0-----------0-------
------3---3-------3---3-------3---3-----------2-----
----0-------0---0-------0---0-------0-----2-----2---
----------------------------------------2-----------
--------------------------------------0-------------
--3-----------2-----------0-------------------------
  Olympics, Special... 

--------2-----------2------------2-----------2--------
------3---3-------3---3--------3---3-------3----3-----
----2-------2---2-------2---2--------2---2--------2---
--0-----------0-----------0------------0--------------
------------------------------------------------------
------------------------------------------------------
  ...Olympics.

--------2-----------2------------2-----------2--------
------3---3-------3---3--------3---3-------3----3-----
----2-------2---2-------2---2--------2---2--------2---
--0-----------0-----------0------------0--------------
------------------------------------------------------
------------------------------------------------------  
  Round his neck gold medals hung,
  Resting on his giant tongue.

--------3-----------3-----------0-----------0---------
------3---3-------3---3-------3---3-----------2-------
----0-------0---0-------0---0-------0-----2-----2-----
----------------------------------------2-------------
--------------------------------------0---------------
--3-----------2-----------0---------------------------
  Olympics, Special...

--------2-----------2------------2-----------2--------
------3---3-------3---3--------3---3-------3----3-----
----2-------2---2-------2---2--------2---2--------2---
--0-----------0-----------0------------0--------------
------------------------------------------------------
------------------------------------------------------
  ...Olympics.

--------3-----------3-----------0-----------0---------
------3---3-------3---3-----------2-----------2-------
----0-------0---0-------0-----2-----2-----2-----2-----
----------------------------2-----------2-------------
--------------------------0-----------0---------------
--3-----------3---------------------------------------
  But I kid when I sing.

--------2-----------2-----------2-----------2---------
------3---3-------3---3-------3---3-------3---3-------
----2-------2---2-------2---2-------2---2-------2-----
--0---------------------------------------------------
--------------4-----------2-----------0---------------
------------------------------------------------------
  Cause these games are a beautiful thing.

--------3-----------3-----------3-----------0---------
------3---3-------3---3-------3---3-------3---3-------
----0-------0---0-------0---0-------0---0-------0-----
------------------------------------------------------
------------------------------------------------------
--3-----------3-----------3-----------3---------------
Ok, really I'm just avoiding karma, so my kids aren’t 
   born crippled or blind, and I’ll have to spend all my...

--------0-----------0-----0-------------------------
----------2-----------2---2-------------------------
------2-----2-----2-----2-2-------------------------		
----2-----------2---------2-------------------------
--0-----------0-----------0-------------------------
--------------------------X-------------------------
time.
               D
At the Special Olympics.

Chords:
D: XX0232
Comments