Lynch Stephen - Special Fred Bassline Chords & Tabs

 

Special Fred Bassline Chords & Tabs

Lynch Stephen Chords & Tabs

Version: 1 Type: Bass Tab 0 ratings
1 star 2 stars 3 stars 4 stars 5 stars
comments

Special Fred Bassline Bass Tab

   
#----------------------------------PLEASE NOTE---------------------------------#
#This file is the author's own work and represents their interpretation of the #
#song. You may only use this file for private study, scholarship, or research. #
#------------------------------------------------------------------------------##

                         SPECIAL FRED (Bassline) (Live)
                          As recorded by Stephen Lynch
                          Transcribed by Mike Brown

The real song has no bassline but my friends and i are doing it live now so i decided to
transcribe a bassline for it.

Gtr I (E A D G) - 'Guitar'
Gtr II (E A D G) - 'Bass'

 Intro
 4/4
  Gtr II
   E.  E.  Q.    Q     E.  E.  Q.    Q     E. E. Q.   Q    E. E. Q.   Q
|---------14----14--|---------14----14--|-------2----2--|-------2----2--|
|-------------------|--------------------|---------------|---------------|
|-12--12------------|-12--12-------------|-0--0----------|-0--0----------|
|-------------------|--------------------|---------------|---------------|


  E. E. Q.   Q    E. E. Q.   Q    E. E. Q.   Q    E. E. Q.   Q
|-------2----2--|-------2----2--|-------2----2--|-------2----2--||
|---------------|---------------|---------------|---------------||
|-0--0----------|-0--0----------|-0--0----------|-0--0----------||
|---------------|---------------|---------------|---------------||


   Verse
    $
    E. E. Q.   Q    E. E. Q.   Q    E. E. Q.   Q    E. E. Q.   Q
||--------2----2--|-------2----2--|-------2----2--|-------2----2--|
||o---------------|---------------|---------------|---------------|
||o-0--0----------|-0--0----------|-0--0----------|-0--0----------|
||----------------|---------------|---------------|---------------|


                                                             To Coda
  E. E. Q.   Q    E. E. Q.   Q    E E E E E E E E   E E E E E E E E
|-------2----2--|-------2----2--|-----------------|------------------|
|---------------|---------------|-0-0-0-0-0-0-0-0-|-2-2-2-2-2-2-2-2--|
|-0--0----------|-0--0----------|-----------------|------------------|
|---------------|---------------|-----------------|------------------|


 Chorus
  Q.   E Q.   E   Q.   E Q.   E   Q.   E Q.   E   Q.   E Q.   E
|---------------|---------------|---------------|----------------|
|--------0----0-|-4----4-2----2-|--------0----0-|-4----4-2----2--|
|-0----0--------|---------------|-0----0--------|----------------|
|---------------|---------------|---------------|----------------|


  Q.   E Q.   E   Q.   E Q.   E    E.  E.  Q.    Q
|---------------|---------------|---------14----14--|
|--------0----0-|-4----4-2----2-|-------------------|
|-0----0--------|---------------|-12--12------------|
|---------------|---------------|-------------------|


                                      1.
   E.  E.  Q.    Q     E. E. Q.   Q    E. E. Q.   Q
|---------14----14--|-------2----2--|-------2----2---||
|--------------------|---------------|---------------o||
|-12--12-------------|-0--0----------|-0--0----------o||
|--------------------|---------------|----------------||


  2.
    D.S. al Coda
  E. E. Q.   Q
|-------2----2--|----|
|---------------|----|
|-0--0----------|----|
|---------------|----|


 Chorus
  &
  Q.   E Q.   E   Q.   E Q.   E   Q.   E Q.   E   Q.   E Q.   E
|---------------|---------------|---------------|----------------|
|--------0----0-|-4----4-2----2-|--------0----0-|-4----4-2----2--|
|-0----0--------|---------------|-0----0--------|----------------|
|---------------|---------------|---------------|----------------|


  Q.   E Q.   E   Q.   E Q.   E    E.  E.  Q.    Q
|---------------|---------------|---------14----14--|
|--------0----0-|-4----4-2----2-|-------------------|
|-0----0--------|---------------|-12--12------------|
|---------------|---------------|-------------------|


   E.  E.  Q.    Q     E. E. Q.   Q    E. E. Q.   Q
|---------14----14--|-------2----2--|-------2----2--|
|--------------------|---------------|---------------|
|-12--12-------------|-0--0----------|-0--0----------|
|--------------------|---------------|---------------|

[ Tab from: http://www.guitartabs.cc/tabs/l/lynch_stephen/special_fred_bassline_btab.html ]
 Bridge
  Q  Q  Q  Q    Q  Q  Q  Q    Q  Q  Q  Q    Q  Q  Q  Q
|-1--1--1--1--|-2--2--2--2--|-1--1--1--1--|-2--2--2--2---|
|-------------|-------------|-------------|--------------|
|-------------|-------------|-------------|--------------|
|-------------|-------------|-------------|--------------|


  Q  Q  Q  Q    Q  Q  Q  Q    Q  Q  Q  Q    Q  Q  Q  Q
|-1--1--1--1--|-2--2--2--2--|-1--1--1--1--|--------------|
|-------------|-------------|-------------|-2--2--2--2---|
|-------------|-------------|-------------|--------------|
|-------------|-------------|-------------|--------------|


   E.  E.  Q.    Q     E.  E.  Q.    Q     E. E. Q.   Q    E. E. Q.   Q
|---------14----14--|---------14----14--|-------2----2--|-------2----2--|
|-------------------|--------------------|---------------|---------------|
|-12--12------------|-12--12-------------|-0--0----------|-0--0----------|
|-------------------|--------------------|---------------|---------------|


 Verse
  E. E. Q.   Q    E. E. Q.   Q    E. E. Q.   Q    E. E. Q.   Q
|-------2----2--|-------2----2--|-------2----2--|-------2----2--|
|---------------|---------------|---------------|---------------|
|-0--0----------|-0--0----------|-0--0----------|-0--0----------|
|---------------|---------------|---------------|---------------|


  E. E. Q.   Q    E. E. Q.   Q    E E E E E E E E   E E E E E E E E
|-------2----2--|-------2----2--|-----------------|------------------|
|---------------|---------------|-0-0-0-0-0-0-0-0-|-2-2-2-2-2-2-2-2--|
|-0--0----------|-0--0----------|-----------------|------------------|
|---------------|---------------|-----------------|------------------|


  Q.   E Q.   E   Q.   E Q.   E   Q.   E Q.   E   Q.   E Q.   E
|---------------|---------------|---------------|----------------|
|--------0----0-|-4----4-2----2-|--------0----0-|-4----4-2----2--|
|-0----0--------|---------------|-0----0--------|----------------|
|---------------|---------------|---------------|----------------|


  Q.   E Q.   E   Q.   E Q.   E    E.  E.  Q.    Q
|---------------|---------------|---------14----14--|
|--------0----0-|-4----4-2----2-|-------------------|
|-0----0--------|---------------|-12--12------------|
|---------------|---------------|-------------------|


   E.  E.  Q.    Q     E. E. Q.   Q    E. E. Q.   Q
|---------14----14--|-------2----2--|-------2----2--|
|--------------------|---------------|---------------|
|-12--12-------------|-0--0----------|-0--0----------|
|--------------------|---------------|---------------|


  E. E. Q.   Q    E. E. Q.   Q    E. E. Q.   Q    E. E. Q.   Q
|-------2----2--|-------2----2--|-------2----2--|-------2----2--*|
|---------------|---------------|---------------|---------------*|
|-0--0----------|-0--0----------|-0--0----------|-0--0----------*|
|---------------|---------------|---------------|---------------*|


Duration Legend
---------------
W - whole; H - half; Q - quarter; E - 8th; S - 16th; T - 32nd; X - 64th; a - acciaccatura
+ - note tied to previous; . - note dotted; .. - note double dotted
Uncapitalized letters represent notes that are staccato (1/2 duration)
Irregular groupings are notated above the duration line
Duration letters will always appear directly above the note/fret number it represents the
duration for.  Duration letters with no fret number below them represent rests.  Multi-
bar rests are notated in the form Wxn, where n is the number of bars to rest for.  Low
melody durations appear below the staff

Tablature Legend
----------------
 h   - hammer-on
 p   - pull-off
 b   - bend
 pb  - pre-bend
 r   - bend release (if no number after the r, then release immediately)
 /  - slide into or out of (from/to "nowhere")
 s   - legato slide
 S   - shift slide
  - natural harmonic
[n]  - artificial harmonic
n(n) - tapped harmonic
 ~   - vibrato
 tr  - trill
 T   - tap
 TP  - trem. picking
 PM  - palm muting
n/  - tremolo bar dip; n = amount to dip
 n  - tremolo bar down
 n/  - tremolo bar up
/n  - tremolo bar inverted dip
 =   - hold bend; also acts as connecting device for hammers/pulls
   - volume swell (louder/softer)
 x   - on rhythm slash represents muted slash
 o   - on rhythm slash represents single note slash

Misc Legend
-----------
 |  - bar
||  - double bar
||o - repeat start
o|| - repeat end
*|  - double bar (ending)
 :  - bar (freetime)
 $  - Segno
 &  - Coda
Tempo markers -  = BPM(8/16=s8/s16), where s8 = swing 8ths, s16 = swing 16ths


***************************************************************************************
* Generated using Power Tab Editor by Brad Larsen - http://powertab.guitarnetwork.org *
***************************************************************************************
Comments