Lynch Liam - United States Of Whatever Chords & Tabs

 

United States Of Whatever Chords & Tabs

Lynch Liam Chords & Tabs

Version: 2 Type: Tab 0 ratings
1 star 2 stars 3 stars 4 stars 5 stars
comments

United States Of Whatever Tab

Title: United States Of Whatever
Artist: Liam Lynch
Tabbed By: Tom Biagioli

  This is song is well simple & only took 10 mins to tab!!!


Main Riff:
E----------------------
B----------------------
G----------------------
D---55---7-7--77-------
A---55---7-7--77------- 
E---33---5-5--55-------
[ Tab from: http://www.guitartabs.cc/tabs/l/lynch_liam/united_states_of_whatever_tab_ver_2.html ]
Chorus:
E-----------------------------------------
B-----------------------------------------
G-----------------------------------------
D-3-3-3-3--5-5--7-77----------------------
A-3-3-3-3--5-5--7-77----------------------
E-1-1-1-1--3-3--5-55----------------------


The chorus is followed immediately by trhe main riff


That's pretty much all you need.
Comments