Lynch Liam - United States Of Whateve Chords & Tabs

 

United States Of Whateve Chords & Tabs

Lynch Liam Chords & Tabs

Version: 1 Type: Tab 0 ratings
1 star 2 stars 3 stars 4 stars 5 stars
comments

United States Of Whateve Tab

Tabbed by: Johnny Hernandez (beanpicker666@aol.com)
Artist: Liam Lynch
Song: United States of Whatever
Album: Fake Songs

Standard Tuning (EADBGE)

INTRO/VERSE (with slight distortion)

|--------------------------------------------------------------                               
|--------------------------------------------------------------
|--------------------------------------------------------------
|--------------------------------------------------------------
|--------------------------------------------------------------
|----0-3-4-5-5-5-5----0-3-4-5-5-5-5---- 0-3-4-5----------------
[ Tab from: http://www.guitartabs.cc/tabs/l/lynch_liam/united_states_of_whateve_tab.html ]
CHORUS 1
|-------------------------------------------------------------------------
|-------------------------------------------------------------------------
|-------------------------------------------------------------------------
|-------------------------------------------------------------------------
|-10---10---10---10---10---10---10---10---9---9---9---9---9---9---9---9--9
|-10---10---10---10---10---10---10---10---9---9---9---9---9---9---9---9--9
|- 8----8----8----8----8----8----8--- 8---7---7---7---7---7---7---7---7--7

CHORUS 2
|----0----0----0----0----0----0----0----0-----------------------------------------
|----0----0----0----0----0----0----0----0-----------------------------------------
|----1----1----1----1----1----1----1----1-----------------------------------------
|----0----0----0----0----0----0----0----0----3----3----3----3----3----3----3----3-
|----2----2----2----2----2----2----2----2----3----3----3----3----3----3----3----3-
|----3----3----3----3----3----3----3----3----1----1----1----1----1----1----1----1-

SONG STRUCTURE:
Intro/Verse - 2X
Intro/Verse - 2X
Intro/Verse - 2X
Chorus 1 - 1X
Intro/Verse - 2X
Chorus 2 - 1X
Intro/Verse - 2X
Chorus 1 - 1X
Intro/Verse - 2X
Intro/Verse - 4X
Intro/Verse - 2X
Intro/Verse - 2X
Chorus 1 - 1X
Intro/Verse - 2X
Chorus 2 - 1X
Intro/Verse 2X
Comments