Lydia - Always Move Fast Chords & Tabs

 

Always Move Fast Chords & Tabs

Lydia Chords & Tabs

Version: 1 Type: Tab

Always Move Fast Tab

                           “Always Move Fast”
                                 by: Lydia

                              Standard Tuning


   Verse Riff      (STRUM   ACCORDINGLY)

E|-------------0-----------------0------------------0-----------------------|
B|-------------0-----------------0------------------0-----------------------|
G|-------------4-----------------4------------------4-----------------------|
D|-------------2-----------------4------------------2-----------------------|
A|------------(0)----------------2------------------4-----------------------|
E|--------------------------------------------------------------------------|


   Chorus Riff #1

E|-------------4-------------2-------------0--------------------------------|
B|-------------0-------------0-------------0--------------------------------|
G|-------------1-------------4-------------4--------------------------------|
D|-------------2-------------4-------------2--------------------------------|
A|--------------------------(2)------------0--------------------------------|
E|--------------------------------------------------------------------------|
[ Tab from: http://www.guitartabs.cc/tabs/l/lydia/always_move_fast_tab.html ]
 Post Chorus

E|-------------0---------------0----------------0---------------0-----------|
B|-------------4---------------5----------------4---------------0-----------|
G|-------------4---------------4----------------4---------------4-----------|
D|-------------2---------------2----------------2---------------2-----------|
A|------------(0)-------------(0)--------------(0)-------------(0)----------|
E|--------------------------------------------------------------------------|

   Chorus Riff Addition (2nd time)

E|-------------4-------------2-------------0--------------------------------|
B|-------------0-------------0-------------12-------------------------------|
G|-------------1-------------4-------------9--------------------------------|
D|-------------2-------------4-------------11-------------------------------|
A|--------------------------(2)------------0--------------------------------|
E|--------------------------------------------------------------------------|


It’s a fairly simple song... it’s the singing along with it that takes the practice... 
have fun?

Yeah go do that...


Tabbed by : Christopher Wilcott