Luther Allison - The Thrill Is Gone Chords & Tabs

 

The Thrill Is Gone Chords & Tabs

Luther Allison Chords & Tabs

Version: 1 Type: Bass Tab 0 ratings
1 star 2 stars 3 stars 4 stars 5 stars
comments

The Thrill Is Gone Bass Tab

   
The Thrill Is Gone       		by Hawkins/Darnell
(As performed by Luther Allison)

TablEdited by Jan Bjorklund [jan.bjorklund@osterbottningen.fi]
Tuning : E A D G 	Time Signature: 4/4

 |       |       |       |        |       |       |       |        
|----------------------------3---|4---------------------------2---|
|------------2---4---4-----------|------------2---4---4-----------|
|2-------------------------------|--------------------------------|
|--------------------------------|--------------------------------|

 |       |       |       |        |       |       |       |        
|----------------------------3---|4-----------------------4-------|
|------------2---4---4-----------|------------2---4---4-------4---|
|2-------------------------------|--------------------------------|
|--------------------------------|--------------------------------|

 |       |       |       |        |       |       |       |        
|--------------------------------|--------------------------------|
|2---2-------0---------------0---|2---2-------0-----------0-------|
|----------------2---2-----------|----------------2---2-------4---|
|--------------------------------|--------------------------------|
[ Tab from: http://www.guitartabs.cc/tabs/l/luther_allison/the_thrill_is_gone_btab.html ]
 |       |       |       |        |       |       |       |        
|----------------------------2---|4-----------------------2-------|
|------------2---4---4-----------|------------2---4---4-------4---|
|2-------------------------------|--------------------------------|
|--------------------------------|--------------------------------|

 |       |       |       |        |       |       |       |        
|--------------------------------|--------------------------------|
|5---5-------2-----------5---2---|4---4-------2-----------2-------|
|----------------5---5-----------|----------------4---4-------4---|
|--------------------------------|--------------------------------|

 |       |       |       |        |       |       |       |        
|----------------------------2---|4-------------------------------|
|------------2---4---4-----------|----2---3---4-------4-----------|
|2-------------------------------|----------------------------0---|
|--------------------------------|------------------------2-------|

 |       |       |       |        |       |       |       |        
|----------------------------3---|4---------------------------2---|
|------------2---4---4-----------|------------2---4---4-----------|
|2-------------------------------|--------------------------------|
|--------------------------------|--------------------------------|

 |       |       |       |        |       |       |       |        
|----------------------------3---|--------------------------------|
|------------2---4---4-----------|-----    And so forth    -------|
|2-------------------------------|---Take care, and no drugs!-----| 
|--------------------------------|--------------------------------|


Created with TablEdit http://www.tabledit.com/
Comments