Lustra - Scotty Doesn't Know Chords & Tabs

 

Scotty Doesn't Know Chords & Tabs

Lustra Chords & Tabs

Version: 2 Type: Tab 4 ratings
1 star 2 stars 3 stars 4 stars 5 stars
comments

Scotty Doesn't Know Tab

Scotty Doesnt Know Tab by Lustra 

Lustra - Scotty Doesn't Know

This song is off the SoundTrack "Eurotrip." 
I hope that it is right and that you enjoy,
any corrections or comments email me at cowboymurph69@neo.rr.com

intro x3
E----------------------------------------------------------------
B----------------------------------------------------------------
G----------------------------------------------------------------
D----55--44--55------55--44--55------55--44--55--77--55-44-55----
A----------------00--------------33------------------------------
E-33-----------------------------------------------------------



chorus
E------------------------------------------------
B------------------------------------------------
G------------------------------------------------
D--------------4--4--4--4--5--5--5--5--5--5--5--5
A--5--5--5--5--2--2--2--2--3--3--3--3--3--3--3--3
E--3--3--3--3------------------------------------

[ Tab from: http://www.guitartabs.cc/tabs/l/lustra/scotty_doesnt_know_tab_ver_2.html ]
E------------------------------------------------
B------------------------------------------------
G------------------------------------------------
D--------------4--4--4--4--5--5--5--5--------7--7
A--5--5--5--5--2--2--2--2--3--3--3--3--7--7--5--5
E--3--3--3--3--------------------------5--5------

verse (palm muted)
E------------------------------------------------
B------------------------------------------------
G---------------------------------6--5--6--5-----
D----------------------5555-5555--5--5--5--5-----
A--5555-5555-7777-7777-3333-3333--7--5--7--5-----
E--3333-3333-5555-5555---------------------------



E------------------------------------------------
B------------------------------------------------
G---------------------------------6666--5555-----
D----------------------5555-5555--5555--5555-----
A--5555-5555-7777-7777-3333-3333--7777--5555-----
E--3333-3333-5555-5555---------------------------


All tablature is the authors own work.
Comments