Lunachicks - Bitterness Barbie Chords & Tabs

 

Bitterness Barbie Chords & Tabs

Lunachicks Chords & Tabs

Version: 2 Type: Bass Tab 0 ratings
1 star 2 stars 3 stars 4 stars 5 stars
comments

Bitterness Barbie Bass Tab

Song: Bitterness Barbie     
Artist: Lunachicks
Album: Jerk Of All Trades
Tabbed By: Ashley (PreciousThings15@aol.com)
*******************************************************
  
g |-----------------------|
d |-----------------------|
a |------------7-7-7-7-9--| x 12 (slow)
e |-7-7-7-7-5-------------|

g |---------------------------------|     
d |---------------------------------|
a |------------5-4-------------5-4--| x 4 (slow)
e |-7-7-7-7-7-------5-5-5-5-5-------|
                       
g |--------------------------------|       
d |--------------------------------|
a |-7-7-7-7-7-7-7-7-7-7--5-5--4-4--| x 4 
e |--------------------------------|
  (on 4th time, only play the 7's)

g |-----------------------|
d |-----------------------|
a |------------7-7-7-7-9--| x 10 (fast)
e |-7-7-7-7-5-------------|
  
g |---------------------------------|
d |---------------------------------|
a |------------5-4-------------5-4--| x 3 (fast)
e |-7-7-7-7-7-------5-5-5-5-5-------|
[ Tab from: http://www.guitartabs.cc/tabs/l/lunachicks/bitterness_barbie_btab_ver_2.html ]
g |---------------------------|
d |---------------------------|
a |-7-7-7-7-7-7-7-7-7-7--5-4--| x 4 (fast)
e |---------------------------|
  (on 4th time, play only the 7's)

g |-----------------------|
d |-----------------------|
a |------------7-7-7-7-9--| x 7 (slow)
e |-7-7-7-7-5-------------|

g |-----------------------|
d |-----------------------|
a |------------7-7-7-7-9--| x 7 (fast)
e |-7-7-7-7-5-------------|

g |-----------------------------------------|
d |-----------------------------------------|
a |----------------5-4-----------------5-4--| x 4 (slow)
e |-7-7-7-7-7-7-7-------5-5-5-5-5-5-5-------|
  (on the 4th time only play first half)

g |---------------------------------|
d |---------------------------------|
a |------------5-4-------------5-4--| x 4 (fast)
e |-7-7-7-7-7-------5-5-5-5-5-------|

g |---------------------------|
d |---------------------------|
a |-7-7-7-7-7-7-7-7-7-7--5-4--| x 4 (fast)
e |---------------------------|
  (on 4th time, play only the 7's)

i tried to write it how i like to see it. in the order of how the song 
goes..well hope ya like it. (c:
Comments