Luna - California Chords & Tabs

 

California Chords & Tabs

Luna Chords & Tabs

Version: 1 Type: Tab 0 ratings
1 star 2 stars 3 stars 4 stars 5 stars
comments

California Tab

   
#----------------------------------PLEASE NOTE---------------------------------#
#This file is the author's own work and represents their interpretation of the #
#song. You may only use this file for private study, scholarship, or research. #
#------------------------------------------------------------------------------#
#


From gswnow@canes.gsw.peachnet.edu Mon Apr 28 11:44:38 1997
Date: Sun, 23 Mar 1997 13:06:41 -0500
From: Sam & Carla 
To: guitar@olga.net
Subject: TAB: "California" by Luna

    [The following text is in the "iso-8859-1" character set]
    [Your display is set for the "US-ASCII" character set]
    [Some characters may be displayed incorrectly]

California
by LUNA
album: Bewitched

tabbed by sam stewart 
if you have any questions or comments 
you can reach me at:
http://canes.gsw.peachnet.edu/~sbs
samcarla@sowega.net

I^Òm going to tab two different ways to play this. it sounds good 
to play this with a friend though.  either one sounds fine.
guitar one, play all barre chords.
guitar two, capo on the 3rd fret.

intro: (Guitar two, capo 3rd fret)
e -----------3-----1-0-1-0-1-----3----------3-----1-0-1-0------
B ----1----------------------------------1-----------------3---
G--------------------------------------------------------------
D--------------------------------------------------------------
A--------------------------------------------------------------
E--------------------------------------------------------------
[ Tab from: http://www.guitartabs.cc/tabs/l/luna/california_tab.html ]
Guitar one:
chorus and verses
D#?   A#   Cm  G#  A#  (repeat)    D#?=668866
bridge
G#    A#     D#?  (3x)

Guitar Two (capo 3rd):
chorus and verses
C   G   Am   F   G
bridge:
            F            G            C
e-----------1------------3------------0-----------------------
B-----------1------------3------------1-----------------------
G-----------2------------0------------0-----------------------
D-----------3------------0------------2----3--2--0----------
A-----------3------------2-----3--3--3---------------3------
E----1--1--1-----3--3--3------------------------------------

that^Òs it...
lyrics

well, she followed him from phoenix out to california
and then she passed out on the bed
and all the little things he never even asked her for
she simply smiled and shook her head

why can't we smile just like we used to
why don't you figure anymore
why has my sympathy now turned to malice
it doesn't matter any more

and now i realize i'm livin' like a trucker does
although i haven't got the belly
and though she followed me to california all the way
i only wanna watch the telly

why can't we smile just like we used to
why don't you figure anymore
why has my sympathy now turned to malice
it doesn't matter any more

he asked her please stop quotin' rod mc kuen in your post cards
can't understand it anymore
and if your gonna read your poetry aloud to me
i'll have to show you to the door

why can't we smile just like we used to
why don't you figure anymore
why has my sympathy now turned to malice
it doesn't matter any more
Comments