Lullacry - Dont Touch The Flame Chords & Tabs

 

Dont Touch The Flame Chords & Tabs

Lullacry Chords & Tabs

Version: 1 Type: Bass Tab 0 ratings
1 star 2 stars 3 stars 4 stars 5 stars
comments

Dont Touch The Flame Bass Tab

Intro:
G|-----------------|-----------------|-----------------|-----------------|
D|-----------------|-----------------|-----------------|-----------------|
A|-----------------|-----------------|-----------------|-5-5-5-5---------|
E|-5-5-5-5-5-5-5-5-|-1-1-1-1-3-3-3-3-|-5-5-5-5-1-1-1-1-|---------1-1-3-3-|

Verse:
G|-----------------|-----------------|
D|-----------------|-----------------|
A|---------3-3-3-3-|-5-5-5-5---------|
E|-5-5-5-5---------|---------3-3-3-3-|

G|-----------------|-----------------|
D|-----------------|-----------------|
A|---------3-3-3-3-|-5-5-5-5---------|
E|-5-5-5-5---------|---------3-3-3-3-|

G|-----------------|-----------------|
D|-----------------|-----------------|
A|---------3-3-3-3-|-5-5-5-5---------|
E|-5-5-5-5---------|---------3-3-3-3-|

G|-----------------|-----------------|
D|-----------------|-----------------|
A|---------3-3-3-3-|-5-5-5-5-hold----|
E|-5-5-5-5---------|--------------3--|
[ Tab from: http://www.guitartabs.cc/tabs/l/lullacry/dont_touch_the_flame_btab.html ]
Chorus:
G|---------------- |-----------------|-----------------|-----------------|
D|-----------------|-----------------|-----------------|-----------------|
A|-----------------|-----------------|-----------------|-5-5-5-5---------|
E|-5-5-5-5-5-5-5-5-|-1-1-1-1-3-3-3-3-|-5-5-5-5-1-1-1-1-|---------1-1-3-3-|

Verse

Chorus x 2

Interlude:
G|-----------------|-----------------|-----------------|---------|
D|-----------------|-----------------|-----------------|---------|
A|-5-5-5-5---------|---------1-1-1-1-|-3-3-3-3-4-4-4-4-|-4-4-4-4-|
E|---------1-1-1-1-|-3-3-3-3---------|-----------------|---------|

Solo:
G|-----------------|-----------------|-----------------|----------------|
D|-----------------|-----------------|-----------------|----------------|
A|-5-5-5-5-5-5-5-5-|-1-1-1-1-3-3-3-3-|-5-5-5-5---------|----------------|
E|-----------------|-----------------|---------0-0-0-0-|-1-1-1-1-3-hold-|

Drums + vocals:
G|---------------- |-----------------|-----------------|-----------------|
D|-----------------|-----------------|-----------------|-----------------|
A|-----------------|-----------------|-----------------|-5-5-5-5---------|
E|-----------------|-----------------|-----------------|---------1-1-3-3-|

Chorus x 2

Intro x 2

Ends on A (hold out)

_____________________________________________________________________

Have fun! /Fredrik Andersson
Comments