Ludwig Von Beethoven - 9th Symphony 4th Movement Chords & Tabs

 

9th Symphony 4th Movement Chords & Tabs

Ludwig Von Beethoven Chords & Tabs

Version: 1 Type: Tab 0 ratings
1 star 2 stars 3 stars 4 stars 5 stars
comments

9th Symphony 4th Movement Tab

this is completely correct, full tablature from sheet music,
if u can read sheet music u will realize what Fine means, oy vey!
and if u cant read sheet music...*edited by reviewer, be nice :P*
so please, i took alot of time writing this tab, give it a try, and
for those of you new to classical guitar, its not very easy, so go slowly
then speed up as your skill increases

E|-0--0---1--3-|-3--1--0----|----------0-|-0--------|-0--0---1--3-|-3--1--0----|
B|-------------|-0--------3-|-1--1--3----|------3-3-|-------------|-0--------3-|
G|-0-----------|------------|----------0-|-0--------|-0-----------|------------|
D|--------0--2-|-2--0-------|-2--2--3----|--------3-|--------0--2-|-2--0-------|
A|-3--3--------|-------3--2-|-3----------|----------|-3--3--------|-------3--2-|
E|-------------|------------|------------|-3--------|-------------|------------|
   3  3   1  4   4  1  3  4   1  1  4      2    4 4   3  3   1  4   4  1  3  4
             2   2        2   2  2  3             3             2   2        2
    ^fingers to use           3
[ Tab from: http://www.guitartabs.cc/tabs/l/ludwig_von_beethoven/9th_symphony_4th_movement_tab.html ]
E-|----------0-|----------||--------0----|----0-1-0----|----0-1-0----|----------0-|
B-|-1--1--3----|-3----1-1-||--3--3-----1-|-3---------1-|-3---------3-|-1--3-----1-|
G-|----------0-|----------||*-0-----0----|-0------0----|-0------1----|-2--2--0----|
D-|-2--2--3----|-3------2-||*------------|-------------|-------------|-------0----|
A-|-3----------|--------3-||--2-----3----|-2------3----|-2------2----|-0----------|
E-|------------|-3--------||-------------|-------------|-------------|----2--3----|
    1     4      4    1 1     4  4  3  1   4    1 3  1   4    1 1  4   1  4  3  1  
    2     3      3      2     2            2             2      2      2  3
    3            2      3                                                 2
                                          1°---------|   2°--------|

E-|-0--0--1--3-|-3--1--0----|----------0-|-----------|| |----------|
B-|-1-----3----|-0-----0--3-|-1--1--3----|-3----1-1--|| |-3----1-1-|
G-|------------|------------|-0--------0-|----------*|| |----------| Fine
D-|------------|------------|-2-----3----|-3------2-*|| |-3------2-|
A-|-3-----3----|------------|------------|--------3--|| |--------3-|
E-|------------|-3-----3----|------------|-3---------|| |-3--------|
    1     1      4 1   3  4   1  2  4      4      1      
    3     4      3            2     3      3      2
          3                                2      3

Comments