Ludwig Van Beethoven - Ode To Joy Chords & Tabs

 

Ode To Joy Chords & Tabs

Ludwig Van Beethoven Chords & Tabs

Version: 1 Type: Bass Tab 0 ratings
1 star 2 stars 3 stars 4 stars 5 stars
comments

Ode To Joy Bass Tab

   
G|-4-4-5-7-7-5-4-2--0-0-2-4-4-2-2-
D|--------------------------------
A|--------------------------------
E|--------------------------------
[ Tab from: http://www.guitartabs.cc/tabs/l/ludwig_van_beethoven/ode_to_joy_btab.html ]
First Ending
G|-2-2-4-0-2-4-5-4-0-2-4-5-4-2-0-2---
D|---------------------------------0-
A|-----------------------------------
E|-----------------------------------

Other Ending:
G|-0-0-2-4-2-0-0-
D|---------------
A|---------------
E|---------------


Then the first part with the Other Ending.

If you dont think this is right, which I think is,
then send me an e-mail!
Comments