Ludwig Van Beethoven - Fur Elise Chords & Tabs

 

Fur Elise Chords & Tabs

Ludwig Van Beethoven Chords & Tabs

Version: 7 Type: Tab 0 ratings
1 star 2 stars 3 stars 4 stars 5 stars
comments

Fur Elise Tab

   
Fur Elise - Beethoven
Standard Tuning
Part A

-9-8-9-8-9------------------------------------------------------------------
-----------9--12--10-----------------------9----------------9--10-----------
---------------------11----------------11---------------10------------------
-----------------------------------11---------------11-------------------11-
----------------------------9--12----------------8--------------------9-----
-------------------------9--------------------9--------------------9--------

-9-8-9-8-9----------------------------------------------------------------
------------9--12--10------------------------9------------10--9-----------
-----------------------11----------------11----------------------11-------
-------------------------------------11---------------11------------------
------------------------------9--12----------------8--------------------9-
---------------------------9--------------------9--------------------9----

-9-8-9-8-9-------------------------------------------------------------------
-----------9--12--10------------------------9----------------9--10-----------
----------------------11----------------11---------------10------------------
------------------------------------11---------------11-------------------11-
-----------------------------9--12----------------8--------------------9-----
--------------------------9--------------------9--------------------9--------

-9-8-9-8-9----------------------------------
------------9--12--10-----------------------
-----------------------11----------------11-
-------------------------------------11-----
------------------------------9--12---------
---------------------------9----------------

Part B
[ Tab from: http://www.guitartabs.cc/tabs/l/ludwig_van_beethoven/fur_elise_tab_ver_7.html ]
-----------------------------------------9-------------10--9-----------------
-9------------10--9------------9--10--12-----------------------12------------
--------------------11-------------------------------------------------------
---------11-----------------------------------------9---------------------12-
------8--------------------9--------------------12--------------------11-----
---9--------------------9-------------------12--------------------12---------

-9--------------------------------------9---9--21--------7--9--------8--9--8-
---12--10----------12--10--9-------------------------------------------------
-----------------------------------------------------------------------------
----------------11---------------11--11--------------------------------------
-------------9---------------------------------------------------------------
----------9-------------------9-----------9---------8--9--------8--9---------

Repeat Part A

Repeat Part B

Part C

-9-8-9--------------------------------------------------------------------
--------9--12--10------------------------9----------------9--10-----------
-------------------11----------------11---------------10------------------
---------------------------------11---------------11-------------------11-
--------------------------9--12----------------8--------------------9-----
-----------------------9--------------------9--------------------9--------

-9-8-9-8-9-------------------------------------------------------------------
-----------9--12--10---------------------9----------10--9--------------------
----------------------11-------------11-------------------11-----------------
---------------------------------11--------------11--------------------------
---------------------------9-12---------------8-----------------9--10--9--10-
-------------------------9-----------------9-----------------9---------------
Comments