Ludwig Van Beethoven - Fur Elise Chords & Tabs

 

Fur Elise Chords & Tabs

Ludwig Van Beethoven Chords & Tabs

Version: 3 Type: Tab 0 ratings
1 star 2 stars 3 stars 4 stars 5 stars
comments

Fur Elise Tab

Song: Fur Elise (intro)
By: Ludwig van Beethoven
email: cs_giver@yahoo.com

enjoy!

e|--12-11-12-11-12----10-8---------5-7-------4-7-8-----|
B|-----------------12----------1-5---------5-----------|
G|------------------------(2)---------(1)---------(2)--|
D|-----------------------(2)---------------------(2)---|
A|----------------------(0)----------(2)--------(0)----|
E|----------------------------------(0)----------------|
[ Tab from: http://www.guitartabs.cc/tabs/l/ludwig_van_beethoven/fur_elise_tab_ver_3.html ]
e|--12-11-12-11-12----10-8---------5-7-------8--7--5-----|
B|-----------------12----------1-5---------5-------------|
G|------------------------(2)---------(1)-----------(2)--|
D|-----------------------(2)-----------------------(2)---|
A|----------------------(0)----------(2)----------(0)----|
E|----------------------------------(0)------------------|

e|--5--7-8-10-12--5-13-12-10--3-12-10-8--1-10-8-7--|

e|--0-12-0-12-12-24--|

I think this is good... let me know if you have any problems.  keep in mind that this is only the intro ;)

Comments