Ludo - Part I Broken Bride Chords & Tabs

 

Part I Broken Bride Chords & Tabs

Ludo Chords & Tabs

Version: 1 Type: Tab 0 ratings
1 star 2 stars 3 stars 4 stars 5 stars
comments

Part I Broken Bride Tab

   
-------------------------------------------------------------------------------
			     Part I: Broken Bride - Ludo
-------------------------------------------------------------------------------
Tabbed by: Winter Laike
Email: laike11eleven@hotmail.com

Tuning: Standard

This is only the rhythm guitar (the part that Andrew plays).  Towards the end—the
outro—I just gave some general chords that sound like what is being played.  I know it
is not exactly what is going on, but it is the simple tune.  You should listen to the
song to get the rhythm and strumming pattern down.  You can’t really get the feel for
it just by looking at the tab.  Again, I know for a fact that this may not be 100%
correct, but you can use it as an outline for figuring the real thing out yourself.

INTRO

e |------------------------------------------------------------------------|
B |--3-----------5---------------------------------------------------------|
G |--4-----------5-----------4---------------------------------------------|
D |--4---x 16----5—--x 16----5---x 16--------7---x 16----------------------|
A |--2-----------3-----------5---------------7-----------------------------|
E |--------------------------3---------------5-----------------------------|

VERSE
     Em      C      G     Am        Em      C      G      G 
e |----------0------3------0----------------0------3------3----------------|
B |---0------1------3------1---------0------1------3------3----------------|
G |---0------0------0------2---------0------0------0------0----------------|
D |---2------2------0------2---------2------2------0------0----------------|
A |---2------3------2------0---------2------3------2------0----------------|
E |---0-------------3----------------0-------------3------3----------------|
     “Fifteen years I raged against the constant C, the speed of light…”

CHORUS
     Am      F       C      G      Am       F       C       G
e |---0-0----0-0-----0-0----3-3-----0-0-----0-0-----0-0-----3333-----------|
B |---1-1----1-1-----1-1----3-3-----1-1-----1-1-----1-1-----3333-----------|
G |---2-2----2-2-----0-0----0-0-----2-2-----2-2-----0-0-----0000-----------|
D |---2-2----3-3-----2-2----0-0-----2-2-----3-3-----2-2-----0000-----------|
A |---0-0----0-0-----3-3----2-2-----0-0-----0-0-----3-3-----2222-----------|
E |----------x-x------------3-3-------------x-x-------------3333-----------|
     “I crashed before the birth of Christ, pterodactyls swarming…”


     F     Am    G     C     F     Am    G       Em   C  Em   C
e |--0000--0000--3333--0000--0000—-0000—-3333--|------0-------0--|
B |--1111--1111--3333--1111--1111--1111—-3333--|--0---1---0---1--|
G |--2222--2222--0000--0000--2222--2222—-0000--|--0---0---0---0--|
D |--3333--2222--0000--2222--3333--2222—-0000--|--2---2---2---2--|
A |--0000--0000--2222--3333--0000--0000—-2222--|--2---3---2---3--|
E |--xxxx--------3333--------xxxx--------3333--|--0-------0------|
    “…keep you in bed, never escape, holding you close…”

VERSE
     Em      C      G     Am        Em      C      G      G 
e |----------0------3------0----------------0------3------3----------------|
B |---0------1------3------1---------0------1------3------3----------------|
G |---0------0------0------2---------0------0------0------0----------------|
D |---2------2------0------2---------2------2------0------0----------------|
A |---2------3------2------0---------2------3------2------0----------------|
E |---0-------------3----------------0-------------3------3----------------|
    “…Like motor oil down my throat, I couldn’t speak…”
[ Tab from: http://www.guitartabs.cc/tabs/l/ludo/part_i_broken_bride_tab.html ]
CHORUS
     Am      F       C      G      Am       F       C       G
e |---0-0----0-0-----0-0----3-3-----0-0-----0-0-----0-0-----3333-----------|
B |---1-1----1-1-----1-1----3-3-----1-1-----1-1-----1-1-----3333-----------|
G |---2-2----2-2-----0-0----0-0-----2-2-----2-2-----0-0-----0000-----------|
D |---2-2----3-3-----2-2----0-0-----2-2-----3-3-----2-2-----0000-----------|
A |---0-0----0-0-----3-3----2-2-----0-0-----0-0-----3-3-----2222-----------|
E |----------x-x------------3-3-------------x-x-------------3333-----------|
    “I crashed before the birth of Christ, pterodactyls swarming…”

     F     Am    G     C     F     Am    G       Em   
e |--0000--0000--3333--0000--0000—-0000—-3333--|---------------------|
B |--1111--1111--3333--1111--1111--1111—-3333--|--0-----0------------|
G |--2222--2222--0000--0000--2222--2222—-0000--|--0-------0----------|
D |--3333--2222--0000--2222--3333--2222—-0000--|--2---------2--------|
A |--0000--0000--2222--3333--0000--0000—-2222--|--2----------2-------|
E |--xxxx--------3333--------xxxx--------3333--|--0------------------|
    “…keep you in bed, never escape, holding you close…” 

BRIDGE

e |------------------------------------------------------------------------|
B |---0-----------------------0--------------------------------------------|
G |---0-----5-----4-----5-----0-----5-----4-----5--------------------------|
D |---2-----5-----5-----5-----2-----5-----5-----5--------------------------|
A |---2-----3-----5-----3-----2-----3-----5-----3--------------------------|
E |---0-----------3-----------0-----------3--------------------------------|
   “…I carved your sweet name into the cave…”

CHORUS

e |------------------------------------------------------------------------|
B |---3---3--------------------------------33------------------------------|
G |---4---4----4---4----7---7----6-—-------44-----44-----77-------6--------|
D |---4—--4----5---5----7---7----7---------44-----55-----77-------7--------|
A |---2---2----5---5----5---5----7---------22-----55-----55-------7--------|
E |------------3---3-------------5—---------------33--------------5--------|
    “…I crashed before the birth of Christ, pterodactyls swarming…”

e |------------------------------------------------------------------------|
B |----------33333333----------------------------33333333------------------|
G |-44444444-44444444-66666666-77777777-44444444-44444444-66-66-66-66-6666-|
D |-55555555-44444444-77777777-77777777-55555555-44444444-77-77-77-77-7777-|
A |-55555555-22222222-77777777-55555555-55555555-22222222-77-77-77-77-7777-|
E |-33333333----------55555555----------33333333----------55-55-55-55-5555-|
    “…keep you in bed, never escape, holding you close…”

OUTRO

e |--------------------------------------------------|
B |--------------------------------------------------|
G |---33333333---77777777---33333333---77777777------|
D |---44444444---77777777---44444444---77777777------| x 2
A |---44444444---55555555---44444444---55555555------|
E |---22222222--------------22222222-----------------|


e |------------------------------------------------------------------------|
B |------------------------------------------------------------------------|
G |--33----33----333--7777777777777777—-3333333333333333—-7777777777777777-|
D |--44----44----444--7777777777777777--4444444444444444—-7777777777777777-|
A |--44----44----444--5555555555555555--4444444444444444—-5555555555555555-|
E |--22----22----222--------------------2222222222222222-------------------|


e |------------------------------------------------------------------------|
B |------------------------------------------------------------------------|
G |-3333333333333333-7777777777777777-3333333333333333-77-77-77-77-7777--3-|
D |-4444444444444444-7777777777777777-4444444444444444-77-77-77-77-7777--4-|
A |-4444444444444444-5555555555555555-4444444444444444—55-55-55-55-5555--4-|
E |-2222222222222222------------------2222222222222222-------------------2-|

============================================================================
Comments