Ludacris - Ho Chords & Tabs

 

Ho Chords & Tabs

Ludacris Chords & Tabs

Version: 1 Type: Bass Tab 0 ratings
1 star 2 stars 3 stars 4 stars 5 stars
comments

Ho Bass Tab

Tabbed By: ????

Tunning = Drop D

G-----------------------------------------------------------
D-----------------------------------------------------------
A----7-7---7-7---5---4---2----------------------------------
D--7-----7-----7---5---4---2--------------------------------

or
[ Tab from: http://www.guitartabs.cc/tabs/l/ludacris/ho_btab.html ]
G-----------------------------------------------------------
D-----------------------------------------------------------
A--0--77--0--77--0--5--4--2---------------------------------
D--------------------5--4--2--------------------------------

Play this through the entire song
Please post any mistakes
Comments