Lucky Boys Confusion - Throwing The Game Chords & Tabs

 

Throwing The Game Chords & Tabs

Lucky Boys Confusion Chords & Tabs

Version: 1 Type: Tab 0 ratings
1 star 2 stars 3 stars 4 stars 5 stars
comments

Throwing The Game Tab

   
Band: Lucky Boys Confusion
Tabbed By: Eric Nowrouzi

Breaking Rules-

Intro:

e|----------------------|
B|----------------------|
G|7-8-7--7-8-7--7-8-7---|
D|--------------------8-|
A|----------------------|
E|----------------------|

Verse:  A# C G D# / G F D#

Chorus:  A# F D# D# / D D# G F

Solo: 

e|-----------------------------------------|
B|------------1-3----------1---------------|
G|3----3-3-3--------3-3-3----3-------------|
D|------3-3-3--------3-3-3-------1p0h1-0---|
A|---------------------------------------1-|
E|-----------------------------------------|

Last Chorus:  C G F F / E F A G

e|-------------------------|
B|-------------------------|
G|9-10-9--9-10-9--9-10-9---|
D|-----------------------9-|
A|-------------------------|
E|-------------------------|


40/80-

Intro: 

e|7-7-7-7-10-9--7-7-----10-10-|
B|8-8-8-8-11-10-8-8-----11-11-|
G|9-9-9-9-12-11-9-9-----12-12-|
D|9-9-9-9-12-11-9-9-----12-12-|
A|7-7-7-7-10-9--7-7--7--10-10-|
E|--------------------7-------|

Verse:

e|7-7-7-7-7-7-7-7-7-7-7-7-----7-|
B|8-8-8-8-7-7-7-7-8-8-8-8----7--|
G|9-9-9-9-8-8-8-8-9-9-9-9-------|
D|9-9-9-9-9-9-9-9-9-9-9-9---9---|
A|7-7-7-7-9-9-9-9-7-7-7-7--9----|
E|--------7-7-7-7---------7-----|

e|7-7-7-7-7-7-7-7-7-7-7-7-7-7-7-7|5-5-5-5-7-7-7-7-5-5-5-5-7-7-7-7|
B|8-8-8-8-7-7-7-7-8-8-8-8-7-7-7-7|5-5-5-5-7-7-7-7-5-5-5-5-7-7-7-7|
G|9-9-9-9-8-8-8-8-9-9-9-9-8-8-8-8|6-6-6-6-8-8-8-8-6-6-6-6-8-8-8-8|
D|9-9-9-9-9-9-9-9-9-9-9-9-9-9-9-9|7-7-7-7-9-9-9-9-7-7-7-7-9-9-9-9|
A|7-7-7-7-9-9-9-9-7-7-7-7-9-9-9-9|7-7-7-7-9-9-9-9-7-7-7-7-9-9-9-9|
E|--------7-7-7-7---------7-7-7-7|5-5-5-5-7-7-7-7-5-5-5-5-7-7-7-7|

Prechorus:  E  B  E  D  E  B D

Chorus:  E D G C (x3)/ E D C C

Solo:

e|-------------------------------------------------------|
B|-------------------------------------------------------|
G|-------------------------------------------------------|
D|-------5-------------5-------------5-------------8-----|
A|--7p5h7-7p5h7---7p5h7-7p5h7---7p5h7-7p5h7---7p5h7------|
E|7-------------7-------------7-------------7------------|

e|--------------------------------------|
B|--------------------------------------|
G|--------------------------------------|
D|------8p5-------8p5---------8h5--9----|(x2)
A|5-5h7----7--5-7----7--5-5h7----7------|
E|--------------------------------------|

e|---------------------------------------------------------------------------|
B|12-12-12-12--------------------------------------------------------------8-|
G|-----------------------------7-9-9-9-9-7-7-7-7-9-9-9-9-7-7-7-7-9-9-9-9-7---|
D|9--9--9--9--9-7p5-7p5-7p5-5---------------------------------------------9--|
A|-------------------------7-------------------------------------------------|
E|---------------------------------------------------------------------------|

e|18-16--------------------16-----18---------|
B|------16h18-18-18-18p16----18-16-----------|
G|-----------------------17------------------|
D|-------------------------------------------|
A|-----------------------------------5-5-7-7-|
E|------------------------------------7------|


Fred Astaire-

Intro/Chrorus:  C# F G# / F D# C#
                F G# C# / G# D# C#

Verse:  G#  F  D#    C# A# C#

Bridge:  C#  F G# C#  D#  G G# D# (x2)

e|--4-6-3----------------|
B|6-------6-4--6---6--4--|
G|------------5---5--5---|
D|-----------------------|
A|-----------------------|
E|-----------------------|

Bridge(2nd part):  G#    C# / G#  A# G  C#
                   G#  G  G# G (x2)/ C#  G  G# G (x2)


Bossman-

Verse:  D  B  G

Prechorus:  A  B (x3)/ A  E G

Chorus:  D  G  (x3)/ B  A

Bridge:

e|5-5-----|
B|7-7-3-3-|
G|7-7-4-4-|
D|----5-5-|(x3)  D
A|--------|
E|--------|


Do You Miss Me[killians]- 

Chorus:  F G C A / F G C

Verse/Bridge: A F C G

Last Chorus: F G CC BB AA GG FFFF GGGG C


Child's Play-

Verse:  A A#  D D# (x3)  A A# D#
        A#  A# A#  D# D# (x3) A#

Chorus:  A# D# A# F

Bridge:  A#   D#  


Dumb Pop Song-

Intro:  
[ Tab from: http://www.guitartabs.cc/tabs/l/lucky_boys_confusion/throwing_the_game_tab.html ]
e|-------------------------------------|
B|-------3------------------3----------|
G|--2---2-2---2--------2---2-2--2------|
D|-2-2-0-----2-2--2---2-2-0--------2---|
A|0---------0----2-2-0---------0-----0-|
E|--------------0-----------------0----|

Verse:  A  B D  A  F# E (x4)/ D  E 

Chorus:  A  D  A  E  A  D  A E A


Not About Debra- 

Intro:

e|----------------------------------------------------|
B|10-10p9----------10-9--------10-10p9----------------|
G|---------------11----11-9-------------------9-------|
D|-------11--9-11-----------11--------11--9-11--------|
A|----------------------------------------------12-11-|
E|----------------------------------------------------|

e|----------------------------------------------------|
B|10-10p9----------12-10-9-----10-10p9----------------|
G|---------------11-------11-9----------------9-------|
D|-------11--9-11---------------------11--9-11--------|
A|----------------------------------------------12-11-|
E|----------------------------------------------------|

Verse:

e|9--9--9--9--5-5-7-7-|------5-5-7-7|--------------------|
B|10-10-10-10-7-7-9-9-|------7-7-9-9|--------------------|
G|11-11-11-11-7-7-9-9-|11----7-7-9-9|11-11-11-7-7-7-9----|
D|--------------------|11-----------|11-11-11-7-7-7-9----|
A|--------------------|9------------|9--9--9--5-5-5-7----|
E|--------------------|-------------|--------------------|

Chorus:  D  F#  E  /  D  F#F#  E  C#C# D  F# F# E     F

Bridge:

e|------------------------------------------|
B|------------------------------------------|
G|------------------------------------------|
D|-7-7-7-7--7-7-7-7--7-7-7-7---9p7h9p7h9-10-|
A|9-8-7-6--9-8-7-6--9-8-7-6--5--------------|
E|------------------------------------------|

e|----------------------------------------|
B|----------------------------------------|
G|-----------------9----------------------|
D|-7-7-7-6-7-7-6-7------7-7-7-6-7-7-6-7-6-|
A|9-8-9-9-----9--------9-8-9-9-----9------|
E|----------------------------------------|

e|----------------------------------------------------------------------|
B|----------------------------------------------------------------------|
G|--------7h9p7-----9-----------9-----------------------------------9---|
D|-7-11-9------7-6-7---7-7-7-6-7--9p7-9p7-9-7-7-------9--------------11-|
A|9-9-----------------9-8-9-9------------------7-8-9---9--9-9-7-8-9-----|
E|----------------------------------------------------------------------|


Saturday Night-

Intro:  D  E  F#  G  / D  E  F#  G F# G F#  
        F#  E  D  (x3)/ G F# E / F#  E  D  (x2)/ A  F#  E  D

Verse:  D  A  F#  G / D  A  G

Chorus:  D  E  F#  G

e|5-5-7-7-9--9--10-10-|
B|7-7-8-8-10-10-12-12-|
G|7-7-9-9-11-11-12-12-|
D|--------------------|
A|--------------------|
E|--------------------|


Never Like This-

Whole Song is...

e|0-0----0-0----0-0----0-0----|
B|0-0----0-0----0-0----0-0----|
G|0-0----0-0----0-0----0-0----|
D|2-2----4-4----2-2----2-2----|
A|2-2----5-5----3-3----3-3----|
E|0-0-------------------------|


3 to 10 / CB's Caddy Part III-

Verse/Chorus:  D#  C#  G#  D#

Bridge:  D#  C#  C  D#


City Lights-

Verse:

e|8--8--8--8------------------------------|8--8--8------------------------|
B|10-10-10-10-8--8--8--8--6-6-6-6-6-6-6-6-|10-10-10-8--8--8--8------------|
G|10-10-10-10-9--9--9--9--7-7-7-7-7-7-7-7-|10-10-10-9--9--9--9--7----7----|
D|------------10-10-10-10-8-8-8-8-8-8-8-8-|---------10-10-10-10-7----7----|
A|----------------------------------------|---------------------5----5----|
E|----------------------------------------|-------------------------------|

Prechorus:

e|-------------------|
B|6----6----6--------|
G|5----5----5--------|
D|3----2----0--------|
A|-------------------|
E|-------------------|

Chorus:  F  G  A# (x2)/ D  C  A#

Bridge:

e|---------------------------------------------------|
B|-----------------6---6---6---6---6---6---6---6---6-|
G|-------5----3-----5-6-5-6-5-6-5-6-5-6-5-6-5-6-5-6--|
D|-------5----3--------------------------------------|
A|8-8----3----1--------------------------------------|
E|-8-6-6---------------------------------------------|


One To The Right-

Verse:  B A G A 

Chorus:  B B A G G A B B A G

Bridge:  G  A  B D B  B D B


Slip-

Intro:

e|-----------------------------------------------|
B|-3---3-----------------------------------------|
G|--2---2---7-6-4p6--7-6-4p6--7-6-4p6--7-5-4-----|
D|----------7-7-7-7--7-7-7-7--7-7-7-7--0-0-0-5-7-|
A|2------------------------------------------0-0-|
E|----0----0-------------------------------------|

Verse:  G  B

Chorus:  A  B  A  G
Comments